  0
SECTION
  2
HEADER
  9
$ACADVER
  1
AC1021
  9
$ACADMAINTVER
 70
    25
  9
$DWGCODEPAGE
  3
ANSI_950
  9
$INSBASE
 10
0.0
 20
0.0
 30
0.0
  9
$EXTMIN
 10
-7.13347
 20
-1.88892
 30
0.0
  9
$EXTMAX
 10
4.82015
 20
5.44691
 30
0.0
  9
$LIMMIN
 10
0.0
 20
0.0
  9
$LIMMAX
 10
12.0
 20
9.0
  9
$ORTHOMODE
 70
     0
  9
$REGENMODE
 70
     1
  9
$FILLMODE
 70
     1
  9
$QTEXTMODE
 70
     0
  9
$MIRRTEXT
 70
     1
  9
$LTSCALE
 40
1.0
  9
$ATTMODE
 70
     1
  9
$TEXTSIZE
 40
0.2
  9
$TRACEWID
 40
0.05
  9
$TEXTSTYLE
  7
Standard
  9
$CLAYER
  8
0
  9
$CELTYPE
  6
ByLayer
  9
$CECOLOR
 62
   256
  9
$CELTSCALE
 40
1.0
  9
$DISPSILH
 70
     0
  9
$DIMSCALE
 40
1.0
  9
$DIMASZ
 40
0.18
  9
$DIMEXO
 40
0.0625
  9
$DIMDLI
 40
0.38
  9
$DIMRND
 40
0.0
  9
$DIMDLE
 40
0.0
  9
$DIMEXE
 40
0.18
  9
$DIMTP
 40
0.0
  9
$DIMTM
 40
0.0
  9
$DIMTXT
 40
0.18
  9
$DIMCEN
 40
0.09
  9
$DIMTSZ
 40
0.0
  9
$DIMTOL
 70
     0
  9
$DIMLIM
 70
     0
  9
$DIMTIH
 70
     1
  9
$DIMTOH
 70
     1
  9
$DIMSE1
 70
     0
  9
$DIMSE2
 70
     0
  9
$DIMTAD
 70
     0
  9
$DIMZIN
 70
     0
  9
$DIMBLK
  1

  9
$DIMASO
 70
     1
  9
$DIMSHO
 70
     1
  9
$DIMPOST
  1

  9
$DIMAPOST
  1

  9
$DIMALT
 70
     0
  9
$DIMALTD
 70
     2
  9
$DIMALTF
 40
25.4
  9
$DIMLFAC
 40
1.0
  9
$DIMTOFL
 70
     0
  9
$DIMTVP
 40
0.0
  9
$DIMTIX
 70
     0
  9
$DIMSOXD
 70
     0
  9
$DIMSAH
 70
     0
  9
$DIMBLK1
  1

  9
$DIMBLK2
  1

  9
$DIMSTYLE
  2
Standard
  9
$DIMCLRD
 70
     0
  9
$DIMCLRE
 70
     0
  9
$DIMCLRT
 70
     0
  9
$DIMTFAC
 40
1.0
  9
$DIMGAP
 40
0.09
  9
$DIMJUST
 70
     0
  9
$DIMSD1
 70
     0
  9
$DIMSD2
 70
     0
  9
$DIMTOLJ
 70
     1
  9
$DIMTZIN
 70
     0
  9
$DIMALTZ
 70
     0
  9
$DIMALTTZ
 70
     0
  9
$DIMUPT
 70
     0
  9
$DIMDEC
 70
     4
  9
$DIMTDEC
 70
     4
  9
$DIMALTU
 70
     2
  9
$DIMALTTD
 70
     2
  9
$DIMTXSTY
  7
Standard
  9
$DIMAUNIT
 70
     0
  9
$DIMADEC
 70
     0
  9
$DIMALTRND
 40
0.0
  9
$DIMAZIN
 70
     0
  9
$DIMDSEP
 70
    46
  9
$DIMATFIT
 70
     3
  9
$DIMFRAC
 70
     0
  9
$DIMLDRBLK
  1

  9
$DIMLUNIT
 70
     2
  9
$DIMLWD
 70
    -2
  9
$DIMLWE
 70
    -2
  9
$DIMTMOVE
 70
     0
  9
$DIMFXL
 40
1.0
  9
$DIMFXLON
 70
     0
  9
$DIMJOGANG
 40
0.7853981633974483
  9
$DIMTFILL
 70
     0
  9
$DIMTFILLCLR
 70
     0
  9
$DIMARCSYM
 70
     0
  9
$DIMLTYPE
  6

  9
$DIMLTEX1
  6

  9
$DIMLTEX2
  6

  9
$LUNITS
 70
     2
  9
$LUPREC
 70
     4
  9
$SKETCHINC
 40
0.1
  9
$FILLETRAD
 40
0.5
  9
$AUNITS
 70
     0
  9
$AUPREC
 70
     0
  9
$MENU
  1
.
  9
$ELEVATION
 40
0.0
  9
$PELEVATION
 40
0.0
  9
$THICKNESS
 40
0.0
  9
$LIMCHECK
 70
     0
  9
$CHAMFERA
 40
0.5
  9
$CHAMFERB
 40
0.5
  9
$CHAMFERC
 40
1.0
  9
$CHAMFERD
 40
0.0
  9
$SKPOLY
 70
     0
  9
$TDCREATE
 40
2458060.866408021
  9
$TDUCREATE
 40
2458060.533074688
  9
$TDUPDATE
 40
2458060.866408032
  9
$TDUUPDATE
 40
2458060.533074699
  9
$TDINDWG
 40
0.0000000116
  9
$TDUSRTIMER
 40
0.0000000116
  9
$USRTIMER
 70
     1
  9
$ANGBASE
 50
0.0
  9
$ANGDIR
 70
     0
  9
$PDMODE
 70
     0
  9
$PDSIZE
 40
0.0
  9
$PLINEWID
 40
0.0
  9
$SPLFRAME
 70
     0
  9
$SPLINETYPE
 70
     6
  9
$SPLINESEGS
 70
     8
  9
$HANDSEED
  5
6B
  9
$SURFTAB1
 70
     6
  9
$SURFTAB2
 70
     6
  9
$SURFTYPE
 70
     6
  9
$SURFU
 70
     6
  9
$SURFV
 70
     6
  9
$UCSBASE
  2

  9
$UCSNAME
  2

  9
$UCSORG
 10
0.0
 20
0.0
 30
0.0
  9
$UCSXDIR
 10
1.0
 20
0.0
 30
0.0
  9
$UCSYDIR
 10
0.0
 20
1.0
 30
0.0
  9
$UCSORTHOREF
  2

  9
$UCSORTHOVIEW
 70
     0
  9
$UCSORGTOP
 10
0.0
 20
0.0
 30
0.0
  9
$UCSORGBOTTOM
 10
0.0
 20
0.0
 30
0.0
  9
$UCSORGLEFT
 10
0.0
 20
0.0
 30
0.0
  9
$UCSORGRIGHT
 10
0.0
 20
0.0
 30
0.0
  9
$UCSORGFRONT
 10
0.0
 20
0.0
 30
0.0
  9
$UCSORGBACK
 10
0.0
 20
0.0
 30
0.0
  9
$PUCSBASE
  2

  9
$PUCSNAME
  2

  9
$PUCSORG
 10
0.0
 20
0.0
 30
0.0
  9
$PUCSXDIR
 10
1.0
 20
0.0
 30
0.0
  9
$PUCSYDIR
 10
0.0
 20
1.0
 30
0.0
  9
$PUCSORTHOREF
  2

  9
$PUCSORTHOVIEW
 70
     0
  9
$PUCSORGTOP
 10
0.0
 20
0.0
 30
0.0
  9
$PUCSORGBOTTOM
 10
0.0
 20
0.0
 30
0.0
  9
$PUCSORGLEFT
 10
0.0
 20
0.0
 30
0.0
  9
$PUCSORGRIGHT
 10
0.0
 20
0.0
 30
0.0
  9
$PUCSORGFRONT
 10
0.0
 20
0.0
 30
0.0
  9
$PUCSORGBACK
 10
0.0
 20
0.0
 30
0.0
  9
$USERI1
 70
     0
  9
$USERI2
 70
     0
  9
$USERI3
 70
     0
  9
$USERI4
 70
     0
  9
$USERI5
 70
     0
  9
$USERR1
 40
0.0
  9
$USERR2
 40
0.0
  9
$USERR3
 40
0.0
  9
$USERR4
 40
0.0
  9
$USERR5
 40
0.0
  9
$WORLDVIEW
 70
     1
  9
$SHADEDGE
 70
     3
  9
$SHADEDIF
 70
    70
  9
$TILEMODE
 70
     1
  9
$MAXACTVP
 70
    64
  9
$PINSBASE
 10
0.0
 20
0.0
 30
0.0
  9
$PLIMCHECK
 70
     0
  9
$PEXTMIN
 10
1.000000000000000E+20
 20
1.000000000000000E+20
 30
1.000000000000000E+20
  9
$PEXTMAX
 10
-1.000000000000000E+20
 20
-1.000000000000000E+20
 30
-1.000000000000000E+20
  9
$PLIMMIN
 10
0.0
 20
0.0
  9
$PLIMMAX
 10
12.0
 20
9.0
  9
$UNITMODE
 70
     0
  9
$VISRETAIN
 70
     1
  9
$PLINEGEN
 70
     0
  9
$PSLTSCALE
 70
     1
  9
$TREEDEPTH
 70
  3020
  9
$CMLSTYLE
  2
Standard
  9
$CMLJUST
 70
     0
  9
$CMLSCALE
 40
1.0
  9
$PROXYGRAPHICS
 70
     1
  9
$MEASUREMENT
 70
     0
  9
$CELWEIGHT
370
    -1
  9
$ENDCAPS
280
     0
  9
$JOINSTYLE
280
     0
  9
$LWDISPLAY
290
     0
  9
$INSUNITS
 70
     5
  9
$HYPERLINKBASE
  1

  9
$STYLESHEET
  1

  9
$XEDIT
290
     1
  9
$CEPSNTYPE
380
     0
  9
$PSTYLEMODE
290
     1
  9
$FINGERPRINTGUID
  2
{22871241-B9ED-4A84-BEAB-0282685933D6}
  9
$VERSIONGUID
  2
{FAEB1C32-E019-11D5-929B-00C0DF256EC4}
  9
$EXTNAMES
290
     1
  9
$PSVPSCALE
 40
0.0
  9
$OLESTARTUP
290
     0
  9
$SORTENTS
280
   127
  9
$INDEXCTL
280
     0
  9
$HIDETEXT
280
     1
  9
$XCLIPFRAME
290
     0
  9
$HALOGAP
280
     0
  9
$OBSCOLOR
 70
   257
  9
$OBSLTYPE
280
     0
  9
$INTERSECTIONDISPLAY
280
     0
  9
$INTERSECTIONCOLOR
 70
   257
  9
$DIMASSOC
280
     2
  9
$PROJECTNAME
  1

  9
$CAMERADISPLAY
290
     0
  9
$LENSLENGTH
 40
50.0
  9
$CAMERAHEIGHT
 40
0.0
  9
$STEPSPERSEC
 40
2.0
  9
$STEPSIZE
 40
6.0
  9
$3DDWFPREC
 40
2.0
  9
$PSOLWIDTH
 40
0.25
  9
$PSOLHEIGHT
 40
4.0
  9
$LOFTANG1
 40
1.570796326794897
  9
$LOFTANG2
 40
1.570796326794897
  9
$LOFTMAG1
 40
0.0
  9
$LOFTMAG2
 40
0.0
  9
$LOFTPARAM
 70
     7
  9
$LOFTNORMALS
280
     1
  9
$LATITUDE
 40
37.795
  9
$LONGITUDE
 40
-122.394
  9
$NORTHDIRECTION
 40
0.0
  9
$TIMEZONE
 70
 -8000
  9
$LIGHTGLYPHDISPLAY
280
     1
  9
$TILEMODELIGHTSYNCH
280
     1
  9
$SOLIDHIST
280
     1
  9
$SHOWHIST
280
     1
  9
$DWFFRAME
280
     2
  9
$DGNFRAME
280
     2
  9
$REALWORLDSCALE
290
     1
  9
$INTERFERECOLOR
 62
   256
  9
$CSHADOW
280
     0
  9
$SHADOWPLANELOCATION
 40
0.0
  0
ENDSEC
  0
SECTION
  2
CLASSES
  0
CLASS
  1
ACDBDICTIONARYWDFLT
  2
AcDbDictionaryWithDefault
  3
ObjectDBX Classes
 90
        0
 91
        3
280
     0
281
     0
  0
CLASS
  1
VISUALSTYLE
  2
AcDbVisualStyle
  3
ObjectDBX Classes
 90
     4095
 91
        3
280
     0
281
     0
  0
CLASS
  1
SCALE
  2
AcDbScale
  3
ObjectDBX Classes
 90
     1153
 91
        3
280
     0
281
     0
  0
ENDSEC
  0
SECTION
  2
TABLES
  0
TABLE
  2
VPORT
  5
8
330
0
100
AcDbSymbolTable
 70
     1
  0
VPORT
  5
29
330
8
100
AcDbSymbolTableRecord
100
AcDbViewportTableRecord
  2
*Active
 70
     0
 10
0.0
 20
0.0
 11
1.0
 21
1.0
 12
10.42990654205607
 22
4.5
 13
0.0
 23
0.0
 14
0.5
 24
0.5
 15
0.5
 25
0.5
 16
0.0
 26
0.0
 36
1.0
 17
0.0
 27
0.0
 37
0.0
 40
9.0
 41
1.972972972850329
 42
50.0
 43
0.0
 44
0.0
 50
0.0
 51
0.0
 71
     0
 72
   100
 73
     1
 74
     3
 75
     0
 76
     0
 77
     0
 78
     0
281
     0
 65
     1
110
0.0
120
0.0
130
0.0
111
1.0
121
0.0
131
0.0
112
0.0
122
1.0
132
0.0
 79
     0
146
0.0
 60
     3
 61
     5
292
     1
282
     1
141
0.0
142
0.0
 63
   256
  0
ENDTAB
  0
TABLE
  2
LTYPE
  5
5
330
0
100
AcDbSymbolTable
 70
     1
  0
LTYPE
  5
14
330
5
100
AcDbSymbolTableRecord
100
AcDbLinetypeTableRecord
  2
ByBlock
 70
     0
  3

 72
    65
 73
     0
 40
0.0
  0
LTYPE
  5
15
330
5
100
AcDbSymbolTableRecord
100
AcDbLinetypeTableRecord
  2
ByLayer
 70
     0
  3

 72
    65
 73
     0
 40
0.0
  0
LTYPE
  5
16
330
5
100
AcDbSymbolTableRecord
100
AcDbLinetypeTableRecord
  2
Continuous
 70
     0
  3
Solid line
 72
    65
 73
     0
 40
0.0
  0
ENDTAB
  0
TABLE
  2
LAYER
  5
2
330
0
100
AcDbSymbolTable
 70
     2
  0
LAYER
  5
10
330
2
100
AcDbSymbolTableRecord
100
AcDbLayerTableRecord
  2
0
 70
     0
 62
     7
  6
Continuous
370
    -3
390
F
347
0
  0
LAYER
  5
5E
330
2
100
AcDbSymbolTableRecord
100
AcDbLayerTableRecord
  2
layer 1
 70
     0
 62
     7
  6
Continuous
370
    -3
390
F
347
0
  0
ENDTAB
  0
TABLE
  2
STYLE
  5
3
330
0
100
AcDbSymbolTable
 70
     1
  0
STYLE
  5
11
330
3
100
AcDbSymbolTableRecord
100
AcDbTextStyleTableRecord
  2
Standard
 70
     0
 40
0.0
 41
1.0
 50
0.0
 71
     0
 42
0.2
  3
txt
  4

  0
ENDTAB
  0
TABLE
  2
VIEW
  5
6
330
0
100
AcDbSymbolTable
 70
     0
  0
ENDTAB
  0
TABLE
  2
UCS
  5
7
330
0
100
AcDbSymbolTable
 70
     0
  0
ENDTAB
  0
TABLE
  2
APPID
  5
9
330
0
100
AcDbSymbolTable
 70
     2
  0
APPID
  5
12
330
9
100
AcDbSymbolTableRecord
100
AcDbRegAppTableRecord
  2
ACAD
 70
     0
  0
APPID
  5
5D
330
9
100
AcDbSymbolTableRecord
100
AcDbRegAppTableRecord
  2
ODA
 70
     0
  0
ENDTAB
  0
TABLE
  2
DIMSTYLE
  5
A
330
0
100
AcDbSymbolTable
 70
     1
100
AcDbDimStyleTable
  0
DIMSTYLE
105
27
330
A
100
AcDbSymbolTableRecord
100
AcDbDimStyleTableRecord
  2
Standard
 70
     0
340
11
  0
ENDTAB
  0
TABLE
  2
BLOCK_RECORD
  5
1
330
0
100
AcDbSymbolTable
 70
     1
  0
BLOCK_RECORD
  5
1F
330
1
100
AcDbSymbolTableRecord
100
AcDbBlockTableRecord
  2
*Model_Space
340
22
 70
     0
280
     1
281
     0
  0
BLOCK_RECORD
  5
1B
330
1
100
AcDbSymbolTableRecord
100
AcDbBlockTableRecord
  2
*Paper_Space
340
1E
 70
     0
280
     1
281
     0
  0
BLOCK_RECORD
  5
23
330
1
100
AcDbSymbolTableRecord
100
AcDbBlockTableRecord
  2
*Paper_Space0
340
26
 70
     0
280
     1
281
     0
  0
ENDTAB
  0
ENDSEC
  0
SECTION
  2
BLOCKS
  0
BLOCK
  5
20
330
1F
100
AcDbEntity
  8
0
100
AcDbBlockBegin
  2
*Model_Space
 70
     0
 10
0.0
 20
0.0
 30
0.0
  3
*Model_Space
  1

  0
ENDBLK
  5
21
330
1F
100
AcDbEntity
  8
0
100
AcDbBlockEnd
  0
BLOCK
  5
1C
330
1B
100
AcDbEntity
 67
     1
  8
0
100
AcDbBlockBegin
  2
*Paper_Space
 70
     0
 10
0.0
 20
0.0
 30
0.0
  3
*Paper_Space
  1

  0
ENDBLK
  5
1D
330
1B
100
AcDbEntity
 67
     1
  8
0
100
AcDbBlockEnd
  0
BLOCK
  5
24
330
23
100
AcDbEntity
  8
0
100
AcDbBlockBegin
  2
*Paper_Space0
 70
     0
 10
0.0
 20
0.0
 30
0.0
  3
*Paper_Space0
  1

  0
ENDBLK
  5
25
330
23
100
AcDbEntity
  8
0
100
AcDbBlockEnd
  0
ENDSEC
  0
SECTION
  2
ENTITIES
  0
SPLINE
  5
5F
330
1F
100
AcDbEntity
  8
layer 1
 62
     8
370
     5
100
AcDbSpline
210
0.0
220
0.0
230
1.0
 70
    11
 71
     3
 72
    36
 73
    32
 74
     0
 42
0.0000000001
 43
0.0000000001
 40
0.0
 40
0.0
 40
0.0
 40
0.0
 40
0.125
 40
0.125
 40
0.125
 40
0.125
 40
0.25
 40
0.25
 40
0.25
 40
0.25
 40
0.375
 40
0.375
 40
0.375
 40
0.375
 40
0.5
 40
0.5
 40
0.5
 40
0.5
 40
0.625
 40
0.625
 40
0.625
 40
0.625
 40
0.75
 40
0.75
 40
0.75
 40
0.75
 40
0.875
 40
0.875
 40
0.875
 40
0.875
 40
1.0
 40
1.0
 40
1.0
 40
1.0
 10
0.04014
 20
0.94514
 30
0.0
 10
0.04014
 20
0.94514
 30
0.0
 10
0.61282
 20
0.94514
 30
0.0
 10
0.61282
 20
0.94514
 30
0.0
 10
0.61282
 20
0.94514
 30
0.0
 10
0.61441
 20
0.94514
 30
0.0
 10
0.61572
 20
0.94384
 30
0.0
 10
0.61572
 20
0.94225
 30
0.0
 10
0.61572
 20
0.94225
 30
0.0
 10
0.61572
 20
0.94225
 30
0.0
 10
0.61572
 20
0.34976
 30
0.0
 10
0.61572
 20
0.34976
 30
0.0
 10
0.61572
 20
0.34976
 30
0.0
 10
0.61572
 20
0.34816
 30
0.0
 10
0.61441
 20
0.34686
 30
0.0
 10
0.61282
 20
0.34686
 30
0.0
 10
0.61282
 20
0.34686
 30
0.0
 10
0.61282
 20
0.34686
 30
0.0
 10
0.04014
 20
0.34686
 30
0.0
 10
0.04014
 20
0.34686
 30
0.0
 10
0.04014
 20
0.34686
 30
0.0
 10
0.03854
 20
0.34686
 30
0.0
 10
0.03724
 20
0.34816
 30
0.0
 10
0.03724
 20
0.34976
 30
0.0
 10
0.03724
 20
0.34976
 30
0.0
 10
0.03724
 20
0.34976
 30
0.0
 10
0.03724
 20
0.94225
 30
0.0
 10
0.03724
 20
0.94225
 30
0.0
 10
0.03724
 20
0.94225
 30
0.0
 10
0.03724
 20
0.94384
 30
0.0
 10
0.03854
 20
0.94514
 30
0.0
 10
0.04014
 20
0.94514
 30
0.0
  0
SPLINE
  5
60
330
1F
100
AcDbEntity
  8
layer 1
 62
     8
370
     5
100
AcDbSpline
210
0.0
220
0.0
230
1.0
 70
    11
 71
     3
 72
    28
 73
    24
 74
     0
 42
0.0000000001
 43
0.0000000001
 40
0.0
 40
0.0
 40
0.0
 40
0.0
 40
0.1666666666666667
 40
0.1666666666666667
 40
0.1666666666666667
 40
0.1666666666666667
 40
0.3333333333333333
 40
0.3333333333333333
 40
0.3333333333333333
 40
0.3333333333333333
 40
0.5
 40
0.5
 40
0.5
 40
0.5
 40
0.6666666666666666
 40
0.6666666666666666
 40
0.6666666666666666
 40
0.6666666666666666
 40
0.8333333333333333
 40
0.8333333333333333
 40
0.8333333333333333
 40
0.8333333333333333
 40
1.0
 40
1.0
 40
1.0
 40
1.0
 10
-1.58332
 20
-0.43846
 30
0.0
 10
-1.58332
 20
-0.43846
 30
0.0
 10
-0.77516
 20
-0.43846
 30
0.0
 10
-0.77516
 20
-0.43846
 30
0.0
 10
-0.77516
 20
-0.43846
 30
0.0
 10
-0.77315
 20
-0.43846
 30
0.0
 10
-0.77152
 20
-0.44013
 30
0.0
 10
-0.7715
 20
-0.44213
 30
0.0
 10
-0.7715
 20
-0.44213
 30
0.0
 10
-0.77121
 20
-0.48781
 30
0.0
 10
-0.76511
 20
-0.99506
 30
0.0
 10
-0.7715
 20
-0.99504
 30
0.0
 10
-0.7715
 20
-0.99504
 30
0.0
 10
-0.7715
 20
-0.99504
 30
0.0
 10
-1.56879
 20
-0.99251
 30
0.0
 10
-1.56879
 20
-0.99251
 30
0.0
 10
-1.56879
 20
-0.99251
 30
0.0
 10
-1.57077
 20
-0.9925
 30
0.0
 10
-1.58698
 20
-0.99452
 30
0.0
 10
-1.58698
 20
-0.99251
 30
0.0
 10
-1.58698
 20
-0.99251
 30
0.0
 10
-1.58698
 20
-0.94921
 30
0.0
 10
-1.58939
 20
-0.43846
 30
0.0
 10
-1.58332
 20
-0.43846
 30
0.0
  0
SPLINE
  5
61
330
1F
100
AcDbEntity
  8
layer 1
 62
     8
370
     5
100
AcDbSpline
210
0.0
220
0.0
230
1.0
 70
    11
 71
     3
 72
    36
 73
    32
 74
     0
 42
0.0000000001
 43
0.0000000001
 40
0.0
 40
0.0
 40
0.0
 40
0.0
 40
0.125
 40
0.125
 40
0.125
 40
0.125
 40
0.25
 40
0.25
 40
0.25
 40
0.25
 40
0.375
 40
0.375
 40
0.375
 40
0.375
 40
0.5
 40
0.5
 40
0.5
 40
0.5
 40
0.625
 40
0.625
 40
0.625
 40
0.625
 40
0.75
 40
0.75
 40
0.75
 40
0.75
 40
0.875
 40
0.875
 40
0.875
 40
0.875
 40
1.0
 40
1.0
 40
1.0
 40
1.0
 10
-2.81066
 20
1.86192
 30
0.0
 10
-2.81066
 20
1.86192
 30
0.0
 10
-2.49966
 20
1.86192
 30
0.0
 10
-2.49966
 20
1.86192
 30
0.0
 10
-2.49966
 20
1.86192
 30
0.0
 10
-2.4988
 20
1.86192
 30
0.0
 10
-2.49809
 20
1.86128
 30
0.0
 10
-2.49809
 20
1.8605
 30
0.0
 10
-2.49809
 20
1.8605
 30
0.0
 10
-2.49809
 20
1.8605
 30
0.0
 10
-2.49809
 20
1.36334
 30
0.0
 10
-2.49809
 20
1.36334
 30
0.0
 10
-2.49809
 20
1.36334
 30
0.0
 10
-2.49809
 20
1.36255
 30
0.0
 10
-2.4988
 20
1.36191
 30
0.0
 10
-2.49966
 20
1.36191
 30
0.0
 10
-2.49966
 20
1.36191
 30
0.0
 10
-2.49966
 20
1.36191
 30
0.0
 10
-2.81066
 20
1.36191
 30
0.0
 10
-2.81066
 20
1.36191
 30
0.0
 10
-2.81066
 20
1.36191
 30
0.0
 10
-2.81152
 20
1.36191
 30
0.0
 10
-2.81223
 20
1.36255
 30
0.0
 10
-2.81223
 20
1.36334
 30
0.0
 10
-2.81223
 20
1.36334
 30
0.0
 10
-2.81223
 20
1.36334
 30
0.0
 10
-2.81223
 20
1.8605
 30
0.0
 10
-2.81223
 20
1.8605
 30
0.0
 10
-2.81223
 20
1.8605
 30
0.0
 10
-2.81223
 20
1.86128
 30
0.0
 10
-2.81152
 20
1.86192
 30
0.0
 10
-2.81066
 20
1.86192
 30
0.0
  0
SPLINE
  5
62
330
1F
100
AcDbEntity
  8
layer 1
 62
     8
370
     5
100
AcDbSpline
210
0.0
220
0.0
230
1.0
 70
    11
 71
     3
 72
    36
 73
    32
 74
     0
 42
0.0000000001
 43
0.0000000001
 40
0.0
 40
0.0
 40
0.0
 40
0.0
 40
0.125
 40
0.125
 40
0.125
 40
0.125
 40
0.25
 40
0.25
 40
0.25
 40
0.25
 40
0.375
 40
0.375
 40
0.375
 40
0.375
 40
0.5
 40
0.5
 40
0.5
 40
0.5
 40
0.625
 40
0.625
 40
0.625
 40
0.625
 40
0.75
 40
0.75
 40
0.75
 40
0.75
 40
0.875
 40
0.875
 40
0.875
 40
0.875
 40
1.0
 40
1.0
 40
1.0
 40
1.0
 10
-2.9614
 20
0.99748
 30
0.0
 10
-2.9614
 20
0.99748
 30
0.0
 10
-2.36667
 20
0.99748
 30
0.0
 10
-2.36667
 20
0.99748
 30
0.0
 10
-2.36667
 20
0.99748
 30
0.0
 10
-2.36522
 20
0.99748
 30
0.0
 10
-2.36403
 20
0.99591
 30
0.0
 10
-2.36403
 20
0.994
 30
0.0
 10
-2.36403
 20
0.994
 30
0.0
 10
-2.36403
 20
0.994
 30
0.0
 10
-2.36403
 20
0.3046
 30
0.0
 10
-2.36403
 20
0.3046
 30
0.0
 10
-2.36403
 20
0.3046
 30
0.0
 10
-2.36403
 20
0.30268
 30
0.0
 10
-2.36522
 20
0.30111
 30
0.0
 10
-2.36667
 20
0.30111
 30
0.0
 10
-2.36667
 20
0.30111
 30
0.0
 10
-2.36667
 20
0.30111
 30
0.0
 10
-2.9614
 20
0.30111
 30
0.0
 10
-2.9614
 20
0.30111
 30
0.0
 10
-2.9614
 20
0.30111
 30
0.0
 10
-2.96285
 20
0.30111
 30
0.0
 10
-2.96403
 20
0.30268
 30
0.0
 10
-2.96403
 20
0.3046
 30
0.0
 10
-2.96403
 20
0.3046
 30
0.0
 10
-2.96403
 20
0.3046
 30
0.0
 10
-2.96403
 20
0.994
 30
0.0
 10
-2.96403
 20
0.994
 30
0.0
 10
-2.96403
 20
0.994
 30
0.0
 10
-2.96403
 20
0.99591
 30
0.0
 10
-2.96285
 20
0.99748
 30
0.0
 10
-2.9614
 20
0.99748
 30
0.0
  0
SPLINE
  5
63
330
1F
100
AcDbEntity
  8
layer 1
 62
     8
370
     5
100
AcDbSpline
210
0.0
220
0.0
230
1.0
 70
    11
 71
     3
 72
    36
 73
    32
 74
     0
 42
0.0000000001
 43
0.0000000001
 40
0.0
 40
0.0
 40
0.0
 40
0.0
 40
0.125
 40
0.125
 40
0.125
 40
0.125
 40
0.25
 40
0.25
 40
0.25
 40
0.25
 40
0.375
 40
0.375
 40
0.375
 40
0.375
 40
0.5
 40
0.5
 40
0.5
 40
0.5
 40
0.625
 40
0.625
 40
0.625
 40
0.625
 40
0.75
 40
0.75
 40
0.75
 40
0.75
 40
0.875
 40
0.875
 40
0.875
 40
0.875
 40
1.0
 40
1.0
 40
1.0
 40
1.0
 10
0.93348
 20
2.10776
 30
0.0
 10
0.93348
 20
2.10776
 30
0.0
 10
1.23048
 20
2.10776
 30
0.0
 10
1.23048
 20
2.10776
 30
0.0
 10
1.23048
 20
2.10776
 30
0.0
 10
1.23131
 20
2.10776
 30
0.0
 10
1.23198
 20
2.10722
 30
0.0
 10
1.23198
 20
2.10654
 30
0.0
 10
1.23198
 20
2.10654
 30
0.0
 10
1.23198
 20
2.10654
 30
0.0
 10
1.23198
 20
1.60898
 30
0.0
 10
1.23198
 20
1.60898
 30
0.0
 10
1.23198
 20
1.60898
 30
0.0
 10
1.23198
 20
1.6083
 30
0.0
 10
1.23131
 20
1.60776
 30
0.0
 10
1.23048
 20
1.60776
 30
0.0
 10
1.23048
 20
1.60776
 30
0.0
 10
1.23048
 20
1.60776
 30
0.0
 10
0.93348
 20
1.60776
 30
0.0
 10
0.93348
 20
1.60776
 30
0.0
 10
0.93348
 20
1.60776
 30
0.0
 10
0.93265
 20
1.60776
 30
0.0
 10
0.93197
 20
1.6083
 30
0.0
 10
0.93197
 20
1.60898
 30
0.0
 10
0.93197
 20
1.60898
 30
0.0
 10
0.93197
 20
1.60898
 30
0.0
 10
0.93197
 20
2.10654
 30
0.0
 10
0.93197
 20
2.10654
 30
0.0
 10
0.93197
 20
2.10654
 30
0.0
 10
0.93197
 20
2.10722
 30
0.0
 10
0.93265
 20
2.10776
 30
0.0
 10
0.93348
 20
2.10776
 30
0.0
  0
SPLINE
  5
64
330
1F
100
AcDbEntity
  8
layer 1
 62
     8
370
     5
100
AcDbSpline
210
0.0
220
0.0
230
1.0
 70
    11
 71
     3
 72
    36
 73
    32
 74
     0
 42
0.0000000001
 43
0.0000000001
 40
0.0
 40
0.0
 40
0.0
 40
0.0
 40
0.125
 40
0.125
 40
0.125
 40
0.125
 40
0.25
 40
0.25
 40
0.25
 40
0.25
 40
0.375
 40
0.375
 40
0.375
 40
0.375
 40
0.5
 40
0.5
 40
0.5
 40
0.5
 40
0.625
 40
0.625
 40
0.625
 40
0.625
 40
0.75
 40
0.75
 40
0.75
 40
0.75
 40
0.875
 40
0.875
 40
0.875
 40
0.875
 40
1.0
 40
1.0
 40
1.0
 40
1.0
 10
0.93113
 20
3.26134
 30
0.0
 10
0.93113
 20
3.26134
 30
0.0
 10
1.23712
 20
3.26134
 30
0.0
 10
1.23712
 20
3.26134
 30
0.0
 10
1.23712
 20
3.26134
 30
0.0
 10
1.23797
 20
3.26134
 30
0.0
 10
1.23866
 20
3.26072
 30
0.0
 10
1.23866
 20
3.25996
 30
0.0
 10
1.23866
 20
3.25996
 30
0.0
 10
1.23866
 20
3.25996
 30
0.0
 10
1.23866
 20
2.76275
 30
0.0
 10
1.23866
 20
2.76275
 30
0.0
 10
1.23866
 20
2.76275
 30
0.0
 10
1.23866
 20
2.76198
 30
0.0
 10
1.23797
 20
2.76136
 30
0.0
 10
1.23712
 20
2.76136
 30
0.0
 10
1.23712
 20
2.76136
 30
0.0
 10
1.23712
 20
2.76136
 30
0.0
 10
0.93113
 20
2.76136
 30
0.0
 10
0.93113
 20
2.76136
 30
0.0
 10
0.93113
 20
2.76136
 30
0.0
 10
0.93028
 20
2.76136
 30
0.0
 10
0.92959
 20
2.76198
 30
0.0
 10
0.92959
 20
2.76275
 30
0.0
 10
0.92959
 20
2.76275
 30
0.0
 10
0.92959
 20
2.76275
 30
0.0
 10
0.92959
 20
3.25996
 30
0.0
 10
0.92959
 20
3.25996
 30
0.0
 10
0.92959
 20
3.25996
 30
0.0
 10
0.92959
 20
3.26072
 30
0.0
 10
0.93028
 20
3.26134
 30
0.0
 10
0.93113
 20
3.26134
 30
0.0
  0
SPLINE
  5
65
330
1F
100
AcDbEntity
  8
layer 1
 62
     8
370
     5
100
AcDbSpline
210
0.0
220
0.0
230
1.0
 70
    11
 71
     3
 72
    36
 73
    32
 74
     0
 42
0.0000000001
 43
0.0000000001
 40
0.0
 40
0.0
 40
0.0
 40
0.0
 40
0.125
 40
0.125
 40
0.125
 40
0.125
 40
0.25
 40
0.25
 40
0.25
 40
0.25
 40
0.375
 40
0.375
 40
0.375
 40
0.375
 40
0.5
 40
0.5
 40
0.5
 40
0.5
 40
0.625
 40
0.625
 40
0.625
 40
0.625
 40
0.75
 40
0.75
 40
0.75
 40
0.75
 40
0.875
 40
0.875
 40
0.875
 40
0.875
 40
1.0
 40
1.0
 40
1.0
 40
1.0
 10
-2.01463
 20
4.73215
 30
0.0
 10
-2.01463
 20
4.73215
 30
0.0
 10
-0.33163
 20
4.73215
 30
0.0
 10
-0.33163
 20
4.73215
 30
0.0
 10
-0.33163
 20
4.73215
 30
0.0
 10
-0.32695
 20
4.73215
 30
0.0
 10
-0.32313
 20
4.72907
 30
0.0
 10
-0.32313
 20
4.72531
 30
0.0
 10
-0.32313
 20
4.72531
 30
0.0
 10
-0.32313
 20
4.72531
 30
0.0
 10
-0.32313
 20
2.82648
 30
0.0
 10
-0.32313
 20
2.82648
 30
0.0
 10
-0.32313
 20
2.82648
 30
0.0
 10
-0.32313
 20
2.82272
 30
0.0
 10
-0.32695
 20
2.81964
 30
0.0
 10
-0.33163
 20
2.81964
 30
0.0
 10
-0.33163
 20
2.81964
 30
0.0
 10
-0.33163
 20
2.81964
 30
0.0
 10
-2.01463
 20
2.81964
 30
0.0
 10
-2.01463
 20
2.81964
 30
0.0
 10
-2.01463
 20
2.81964
 30
0.0
 10
-2.0193
 20
2.81964
 30
0.0
 10
-2.02313
 20
2.82272
 30
0.0
 10
-2.02313
 20
2.82648
 30
0.0
 10
-2.02313
 20
2.82648
 30
0.0
 10
-2.02313
 20
2.82648
 30
0.0
 10
-2.02313
 20
4.72531
 30
0.0
 10
-2.02313
 20
4.72531
 30
0.0
 10
-2.02313
 20
4.72531
 30
0.0
 10
-2.02313
 20
4.72907
 30
0.0
 10
-2.0193
 20
4.73215
 30
0.0
 10
-2.01463
 20
4.73215
 30
0.0
  0
SPLINE
  5
66
330
1F
100
AcDbEntity
  8
layer 1
 62
     8
370
     5
100
AcDbSpline
210
0.0
220
0.0
230
1.0
 70
    11
 71
     3
 72
   752
 73
   748
 74
     0
 42
0.0000000001
 43
0.0000000001
 40
0.0
 40
0.0
 40
0.0
 40
0.0
 40
0.0053475935828877
 40
0.0053475935828877
 40
0.0053475935828877
 40
0.0053475935828877
 40
0.0106951871657754
 40
0.0106951871657754
 40
0.0106951871657754
 40
0.0106951871657754
 40
0.0160427807486631
 40
0.0160427807486631
 40
0.0160427807486631
 40
0.0160427807486631
 40
0.0213903743315508
 40
0.0213903743315508
 40
0.0213903743315508
 40
0.0213903743315508
 40
0.0267379679144385
 40
0.0267379679144385
 40
0.0267379679144385
 40
0.0267379679144385
 40
0.0320855614973262
 40
0.0320855614973262
 40
0.0320855614973262
 40
0.0320855614973262
 40
0.0374331550802139
 40
0.0374331550802139
 40
0.0374331550802139
 40
0.0374331550802139
 40
0.0427807486631016
 40
0.0427807486631016
 40
0.0427807486631016
 40
0.0427807486631016
 40
0.0481283422459893
 40
0.0481283422459893
 40
0.0481283422459893
 40
0.0481283422459893
 40
0.053475935828877
 40
0.053475935828877
 40
0.053475935828877
 40
0.053475935828877
 40
0.0588235294117647
 40
0.0588235294117647
 40
0.0588235294117647
 40
0.0588235294117647
 40
0.0641711229946524
 40
0.0641711229946524
 40
0.0641711229946524
 40
0.0641711229946524
 40
0.0695187165775401
 40
0.0695187165775401
 40
0.0695187165775401
 40
0.0695187165775401
 40
0.0748663101604278
 40
0.0748663101604278
 40
0.0748663101604278
 40
0.0748663101604278
 40
0.0802139037433155
 40
0.0802139037433155
 40
0.0802139037433155
 40
0.0802139037433155
 40
0.0855614973262032
 40
0.0855614973262032
 40
0.0855614973262032
 40
0.0855614973262032
 40
0.0909090909090909
 40
0.0909090909090909
 40
0.0909090909090909
 40
0.0909090909090909
 40
0.0962566844919786
 40
0.0962566844919786
 40
0.0962566844919786
 40
0.0962566844919786
 40
0.1016042780748663
 40
0.1016042780748663
 40
0.1016042780748663
 40
0.1016042780748663
 40
0.106951871657754
 40
0.106951871657754
 40
0.106951871657754
 40
0.106951871657754
 40
0.1122994652406416
 40
0.1122994652406416
 40
0.1122994652406416
 40
0.1122994652406416
 40
0.1176470588235293
 40
0.1176470588235293
 40
0.1176470588235293
 40
0.1176470588235293
 40
0.122994652406417
 40
0.122994652406417
 40
0.122994652406417
 40
0.122994652406417
 40
0.1283422459893047
 40
0.1283422459893047
 40
0.1283422459893047
 40
0.1283422459893047
 40
0.1336898395721924
 40
0.1336898395721924
 40
0.1336898395721924
 40
0.1336898395721924
 40
0.1390374331550801
 40
0.1390374331550801
 40
0.1390374331550801
 40
0.1390374331550801
 40
0.1443850267379678
 40
0.1443850267379678
 40
0.1443850267379678
 40
0.1443850267379678
 40
0.1497326203208555
 40
0.1497326203208555
 40
0.1497326203208555
 40
0.1497326203208555
 40
0.1550802139037432
 40
0.1550802139037432
 40
0.1550802139037432
 40
0.1550802139037432
 40
0.1604278074866309
 40
0.1604278074866309
 40
0.1604278074866309
 40
0.1604278074866309
 40
0.1657754010695186
 40
0.1657754010695186
 40
0.1657754010695186
 40
0.1657754010695186
 40
0.1711229946524063
 40
0.1711229946524063
 40
0.1711229946524063
 40
0.1711229946524063
 40
0.176470588235294
 40
0.176470588235294
 40
0.176470588235294
 40
0.176470588235294
 40
0.1818181818181817
 40
0.1818181818181817
 40
0.1818181818181817
 40
0.1818181818181817
 40
0.1871657754010694
 40
0.1871657754010694
 40
0.1871657754010694
 40
0.1871657754010694
 40
0.1925133689839571
 40
0.1925133689839571
 40
0.1925133689839571
 40
0.1925133689839571
 40
0.1978609625668448
 40
0.1978609625668448
 40
0.1978609625668448
 40
0.1978609625668448
 40
0.2032085561497325
 40
0.2032085561497325
 40
0.2032085561497325
 40
0.2032085561497325
 40
0.2085561497326202
 40
0.2085561497326202
 40
0.2085561497326202
 40
0.2085561497326202
 40
0.2139037433155078
 40
0.2139037433155078
 40
0.2139037433155078
 40
0.2139037433155078
 40
0.2192513368983955
 40
0.2192513368983955
 40
0.2192513368983955
 40
0.2192513368983955
 40
0.2245989304812832
 40
0.2245989304812832
 40
0.2245989304812832
 40
0.2245989304812832
 40
0.2299465240641709
 40
0.2299465240641709
 40
0.2299465240641709
 40
0.2299465240641709
 40
0.2352941176470586
 40
0.2352941176470586
 40
0.2352941176470586
 40
0.2352941176470586
 40
0.2406417112299463
 40
0.2406417112299463
 40
0.2406417112299463
 40
0.2406417112299463
 40
0.245989304812834
 40
0.245989304812834
 40
0.245989304812834
 40
0.245989304812834
 40
0.2513368983957217
 40
0.2513368983957217
 40
0.2513368983957217
 40
0.2513368983957217
 40
0.2566844919786094
 40
0.2566844919786094
 40
0.2566844919786094
 40
0.2566844919786094
 40
0.2620320855614972
 40
0.2620320855614972
 40
0.2620320855614972
 40
0.2620320855614972
 40
0.2673796791443849
 40
0.2673796791443849
 40
0.2673796791443849
 40
0.2673796791443849
 40
0.2727272727272726
 40
0.2727272727272726
 40
0.2727272727272726
 40
0.2727272727272726
 40
0.2780748663101603
 40
0.2780748663101603
 40
0.2780748663101603
 40
0.2780748663101603
 40
0.283422459893048
 40
0.283422459893048
 40
0.283422459893048
 40
0.283422459893048
 40
0.2887700534759358
 40
0.2887700534759358
 40
0.2887700534759358
 40
0.2887700534759358
 40
0.2941176470588235
 40
0.2941176470588235
 40
0.2941176470588235
 40
0.2941176470588235
 40
0.2994652406417112
 40
0.2994652406417112
 40
0.2994652406417112
 40
0.2994652406417112
 40
0.3048128342245989
 40
0.3048128342245989
 40
0.3048128342245989
 40
0.3048128342245989
 40
0.3101604278074866
 40
0.3101604278074866
 40
0.3101604278074866
 40
0.3101604278074866
 40
0.3155080213903744
 40
0.3155080213903744
 40
0.3155080213903744
 40
0.3155080213903744
 40
0.3208556149732621
 40
0.3208556149732621
 40
0.3208556149732621
 40
0.3208556149732621
 40
0.3262032085561498
 40
0.3262032085561498
 40
0.3262032085561498
 40
0.3262032085561498
 40
0.3315508021390375
 40
0.3315508021390375
 40
0.3315508021390375
 40
0.3315508021390375
 40
0.3368983957219253
 40
0.3368983957219253
 40
0.3368983957219253
 40
0.3368983957219253
 40
0.342245989304813
 40
0.342245989304813
 40
0.342245989304813
 40
0.342245989304813
 40
0.3475935828877007
 40
0.3475935828877007
 40
0.3475935828877007
 40
0.3475935828877007
 40
0.3529411764705884
 40
0.3529411764705884
 40
0.3529411764705884
 40
0.3529411764705884
 40
0.3582887700534761
 40
0.3582887700534761
 40
0.3582887700534761
 40
0.3582887700534761
 40
0.3636363636363639
 40
0.3636363636363639
 40
0.3636363636363639
 40
0.3636363636363639
 40
0.3689839572192516
 40
0.3689839572192516
 40
0.3689839572192516
 40
0.3689839572192516
 40
0.3743315508021393
 40
0.3743315508021393
 40
0.3743315508021393
 40
0.3743315508021393
 40
0.379679144385027
 40
0.379679144385027
 40
0.379679144385027
 40
0.379679144385027
 40
0.3850267379679148
 40
0.3850267379679148
 40
0.3850267379679148
 40
0.3850267379679148
 40
0.3903743315508025
 40
0.3903743315508025
 40
0.3903743315508025
 40
0.3903743315508025
 40
0.3957219251336902
 40
0.3957219251336902
 40
0.3957219251336902
 40
0.3957219251336902
 40
0.4010695187165779
 40
0.4010695187165779
 40
0.4010695187165779
 40
0.4010695187165779
 40
0.4064171122994656
 40
0.4064171122994656
 40
0.4064171122994656
 40
0.4064171122994656
 40
0.4117647058823534
 40
0.4117647058823534
 40
0.4117647058823534
 40
0.4117647058823534
 40
0.4171122994652411
 40
0.4171122994652411
 40
0.4171122994652411
 40
0.4171122994652411
 40
0.4224598930481288
 40
0.4224598930481288
 40
0.4224598930481288
 40
0.4224598930481288
 40
0.4278074866310165
 40
0.4278074866310165
 40
0.4278074866310165
 40
0.4278074866310165
 40
0.4331550802139043
 40
0.4331550802139043
 40
0.4331550802139043
 40
0.4331550802139043
 40
0.438502673796792
 40
0.438502673796792
 40
0.438502673796792
 40
0.438502673796792
 40
0.4438502673796797
 40
0.4438502673796797
 40
0.4438502673796797
 40
0.4438502673796797
 40
0.4491978609625674
 40
0.4491978609625674
 40
0.4491978609625674
 40
0.4491978609625674
 40
0.4545454545454551
 40
0.4545454545454551
 40
0.4545454545454551
 40
0.4545454545454551
 40
0.4598930481283429
 40
0.4598930481283429
 40
0.4598930481283429
 40
0.4598930481283429
 40
0.4652406417112306
 40
0.4652406417112306
 40
0.4652406417112306
 40
0.4652406417112306
 40
0.4705882352941183
 40
0.4705882352941183
 40
0.4705882352941183
 40
0.4705882352941183
 40
0.475935828877006
 40
0.475935828877006
 40
0.475935828877006
 40
0.475935828877006
 40
0.4812834224598938
 40
0.4812834224598938
 40
0.4812834224598938
 40
0.4812834224598938
 40
0.4866310160427815
 40
0.4866310160427815
 40
0.4866310160427815
 40
0.4866310160427815
 40
0.4919786096256692
 40
0.4919786096256692
 40
0.4919786096256692
 40
0.4919786096256692
 40
0.4973262032085569
 40
0.4973262032085569
 40
0.4973262032085569
 40
0.4973262032085569
 40
0.5026737967914446
 40
0.5026737967914446
 40
0.5026737967914446
 40
0.5026737967914446
 40
0.5080213903743324
 40
0.5080213903743324
 40
0.5080213903743324
 40
0.5080213903743324
 40
0.5133689839572201
 40
0.5133689839572201
 40
0.5133689839572201
 40
0.5133689839572201
 40
0.5187165775401078
 40
0.5187165775401078
 40
0.5187165775401078
 40
0.5187165775401078
 40
0.5240641711229955
 40
0.5240641711229955
 40
0.5240641711229955
 40
0.5240641711229955
 40
0.5294117647058832
 40
0.5294117647058832
 40
0.5294117647058832
 40
0.5294117647058832
 40
0.534759358288771
 40
0.534759358288771
 40
0.534759358288771
 40
0.534759358288771
 40
0.5401069518716587
 40
0.5401069518716587
 40
0.5401069518716587
 40
0.5401069518716587
 40
0.5454545454545464
 40
0.5454545454545464
 40
0.5454545454545464
 40
0.5454545454545464
 40
0.5508021390374341
 40
0.5508021390374341
 40
0.5508021390374341
 40
0.5508021390374341
 40
0.5561497326203219
 40
0.5561497326203219
 40
0.5561497326203219
 40
0.5561497326203219
 40
0.5614973262032096
 40
0.5614973262032096
 40
0.5614973262032096
 40
0.5614973262032096
 40
0.5668449197860973
 40
0.5668449197860973
 40
0.5668449197860973
 40
0.5668449197860973
 40
0.572192513368985
 40
0.572192513368985
 40
0.572192513368985
 40
0.572192513368985
 40
0.5775401069518727
 40
0.5775401069518727
 40
0.5775401069518727
 40
0.5775401069518727
 40
0.5828877005347605
 40
0.5828877005347605
 40
0.5828877005347605
 40
0.5828877005347605
 40
0.5882352941176482
 40
0.5882352941176482
 40
0.5882352941176482
 40
0.5882352941176482
 40
0.5935828877005359
 40
0.5935828877005359
 40
0.5935828877005359
 40
0.5935828877005359
 40
0.5989304812834236
 40
0.5989304812834236
 40
0.5989304812834236
 40
0.5989304812834236
 40
0.6042780748663114
 40
0.6042780748663114
 40
0.6042780748663114
 40
0.6042780748663114
 40
0.6096256684491991
 40
0.6096256684491991
 40
0.6096256684491991
 40
0.6096256684491991
 40
0.6149732620320868
 40
0.6149732620320868
 40
0.6149732620320868
 40
0.6149732620320868
 40
0.6203208556149745
 40
0.6203208556149745
 40
0.6203208556149745
 40
0.6203208556149745
 40
0.6256684491978622
 40
0.6256684491978622
 40
0.6256684491978622
 40
0.6256684491978622
 40
0.63101604278075
 40
0.63101604278075
 40
0.63101604278075
 40
0.63101604278075
 40
0.6363636363636377
 40
0.6363636363636377
 40
0.6363636363636377
 40
0.6363636363636377
 40
0.6417112299465254
 40
0.6417112299465254
 40
0.6417112299465254
 40
0.6417112299465254
 40
0.6470588235294131
 40
0.6470588235294131
 40
0.6470588235294131
 40
0.6470588235294131
 40
0.6524064171123009
 40
0.6524064171123009
 40
0.6524064171123009
 40
0.6524064171123009
 40
0.6577540106951886
 40
0.6577540106951886
 40
0.6577540106951886
 40
0.6577540106951886
 40
0.6631016042780763
 40
0.6631016042780763
 40
0.6631016042780763
 40
0.6631016042780763
 40
0.668449197860964
 40
0.668449197860964
 40
0.668449197860964
 40
0.668449197860964
 40
0.6737967914438517
 40
0.6737967914438517
 40
0.6737967914438517
 40
0.6737967914438517
 40
0.6791443850267395
 40
0.6791443850267395
 40
0.6791443850267395
 40
0.6791443850267395
 40
0.6844919786096272
 40
0.6844919786096272
 40
0.6844919786096272
 40
0.6844919786096272
 40
0.6898395721925149
 40
0.6898395721925149
 40
0.6898395721925149
 40
0.6898395721925149
 40
0.6951871657754026
 40
0.6951871657754026
 40
0.6951871657754026
 40
0.6951871657754026
 40
0.7005347593582903
 40
0.7005347593582903
 40
0.7005347593582903
 40
0.7005347593582903
 40
0.7058823529411781
 40
0.7058823529411781
 40
0.7058823529411781
 40
0.7058823529411781
 40
0.7112299465240658
 40
0.7112299465240658
 40
0.7112299465240658
 40
0.7112299465240658
 40
0.7165775401069535
 40
0.7165775401069535
 40
0.7165775401069535
 40
0.7165775401069535
 40
0.7219251336898412
 40
0.7219251336898412
 40
0.7219251336898412
 40
0.7219251336898412
 40
0.727272727272729
 40
0.727272727272729
 40
0.727272727272729
 40
0.727272727272729
 40
0.7326203208556167
 40
0.7326203208556167
 40
0.7326203208556167
 40
0.7326203208556167
 40
0.7379679144385044
 40
0.7379679144385044
 40
0.7379679144385044
 40
0.7379679144385044
 40
0.7433155080213921
 40
0.7433155080213921
 40
0.7433155080213921
 40
0.7433155080213921
 40
0.7486631016042798
 40
0.7486631016042798
 40
0.7486631016042798
 40
0.7486631016042798
 40
0.7540106951871676
 40
0.7540106951871676
 40
0.7540106951871676
 40
0.7540106951871676
 40
0.7593582887700553
 40
0.7593582887700553
 40
0.7593582887700553
 40
0.7593582887700553
 40
0.764705882352943
 40
0.764705882352943
 40
0.764705882352943
 40
0.764705882352943
 40
0.7700534759358307
 40
0.7700534759358307
 40
0.7700534759358307
 40
0.7700534759358307
 40
0.7754010695187185
 40
0.7754010695187185
 40
0.7754010695187185
 40
0.7754010695187185
 40
0.7807486631016062
 40
0.7807486631016062
 40
0.7807486631016062
 40
0.7807486631016062
 40
0.7860962566844939
 40
0.7860962566844939
 40
0.7860962566844939
 40
0.7860962566844939
 40
0.7914438502673816
 40
0.7914438502673816
 40
0.7914438502673816
 40
0.7914438502673816
 40
0.7967914438502693
 40
0.7967914438502693
 40
0.7967914438502693
 40
0.7967914438502693
 40
0.8021390374331571
 40
0.8021390374331571
 40
0.8021390374331571
 40
0.8021390374331571
 40
0.8074866310160448
 40
0.8074866310160448
 40
0.8074866310160448
 40
0.8074866310160448
 40
0.8128342245989325
 40
0.8128342245989325
 40
0.8128342245989325
 40
0.8128342245989325
 40
0.8181818181818202
 40
0.8181818181818202
 40
0.8181818181818202
 40
0.8181818181818202
 40
0.823529411764708
 40
0.823529411764708
 40
0.823529411764708
 40
0.823529411764708
 40
0.8288770053475957
 40
0.8288770053475957
 40
0.8288770053475957
 40
0.8288770053475957
 40
0.8342245989304834
 40
0.8342245989304834
 40
0.8342245989304834
 40
0.8342245989304834
 40
0.8395721925133711
 40
0.8395721925133711
 40
0.8395721925133711
 40
0.8395721925133711
 40
0.8449197860962588
 40
0.8449197860962588
 40
0.8449197860962588
 40
0.8449197860962588
 40
0.8502673796791466
 40
0.8502673796791466
 40
0.8502673796791466
 40
0.8502673796791466
 40
0.8556149732620343
 40
0.8556149732620343
 40
0.8556149732620343
 40
0.8556149732620343
 40
0.860962566844922
 40
0.860962566844922
 40
0.860962566844922
 40
0.860962566844922
 40
0.8663101604278097
 40
0.8663101604278097
 40
0.8663101604278097
 40
0.8663101604278097
 40
0.8716577540106974
 40
0.8716577540106974
 40
0.8716577540106974
 40
0.8716577540106974
 40
0.8770053475935852
 40
0.8770053475935852
 40
0.8770053475935852
 40
0.8770053475935852
 40
0.8823529411764729
 40
0.8823529411764729
 40
0.8823529411764729
 40
0.8823529411764729
 40
0.8877005347593606
 40
0.8877005347593606
 40
0.8877005347593606
 40
0.8877005347593606
 40
0.8930481283422483
 40
0.8930481283422483
 40
0.8930481283422483
 40
0.8930481283422483
 40
0.8983957219251361
 40
0.8983957219251361
 40
0.8983957219251361
 40
0.8983957219251361
 40
0.9037433155080238
 40
0.9037433155080238
 40
0.9037433155080238
 40
0.9037433155080238
 40
0.9090909090909115
 40
0.9090909090909115
 40
0.9090909090909115
 40
0.9090909090909115
 40
0.9144385026737992
 40
0.9144385026737992
 40
0.9144385026737992
 40
0.9144385026737992
 40
0.919786096256687
 40
0.919786096256687
 40
0.919786096256687
 40
0.919786096256687
 40
0.9251336898395747
 40
0.9251336898395747
 40
0.9251336898395747
 40
0.9251336898395747
 40
0.9304812834224624
 40
0.9304812834224624
 40
0.9304812834224624
 40
0.9304812834224624
 40
0.9358288770053501
 40
0.9358288770053501
 40
0.9358288770053501
 40
0.9358288770053501
 40
0.9411764705882378
 40
0.9411764705882378
 40
0.9411764705882378
 40
0.9411764705882378
 40
0.9465240641711256
 40
0.9465240641711256
 40
0.9465240641711256
 40
0.9465240641711256
 40
0.9518716577540133
 40
0.9518716577540133
 40
0.9518716577540133
 40
0.9518716577540133
 40
0.957219251336901
 40
0.957219251336901
 40
0.957219251336901
 40
0.957219251336901
 40
0.9625668449197887
 40
0.9625668449197887
 40
0.9625668449197887
 40
0.9625668449197887
 40
0.9679144385026764
 40
0.9679144385026764
 40
0.9679144385026764
 40
0.9679144385026764
 40
0.9732620320855642
 40
0.9732620320855642
 40
0.9732620320855642
 40
0.9732620320855642
 40
0.9786096256684519
 40
0.9786096256684519
 40
0.9786096256684519
 40
0.9786096256684519
 40
0.9839572192513396
 40
0.9839572192513396
 40
0.9839572192513396
 40
0.9839572192513396
 40
0.9893048128342273
 40
0.9893048128342273
 40
0.9893048128342273
 40
0.9893048128342273
 40
0.994652406417115
 40
0.994652406417115
 40
0.994652406417115
 40
0.994652406417115
 40
1.0
 40
1.0
 40
1.0
 40
1.0
 10
-5.87763
 20
-1.84899
 30
0.0
 10
-5.87763
 20
-1.84899
 30
0.0
 10
-5.95111
 20
-1.84645
 30
0.0
 10
-5.95111
 20
-1.84645
 30
0.0
 10
-5.95111
 20
-1.84645
 30
0.0
 10
-5.95111
 20
-1.84645
 30
0.0
 10
-6.06257
 20
-1.8312
 30
0.0
 10
-6.06257
 20
-1.8312
 30
0.0
 10
-6.06257
 20
-1.8312
 30
0.0
 10
-6.06257
 20
-1.8312
 30
0.0
 10
-6.17151
 20
-1.80578
 30
0.0
 10
-6.17151
 20
-1.80578
 30
0.0
 10
-6.17151
 20
-1.80578
 30
0.0
 10
-6.17151
 20
-1.80578
 30
0.0
 10
-6.28045
 20
-1.77275
 30
0.0
 10
-6.28045
 20
-1.77275
 30
0.0
 10
-6.28045
 20
-1.77275
 30
0.0
 10
-6.28045
 20
-1.77275
 30
0.0
 10
-6.38431
 20
-1.72954
 30
0.0
 10
-6.38431
 20
-1.72954
 30
0.0
 10
-6.38431
 20
-1.72954
 30
0.0
 10
-6.38431
 20
-1.72954
 30
0.0
 10
-6.48311
 20
-1.67617
 30
0.0
 10
-6.48311
 20
-1.67617
 30
0.0
 10
-6.48311
 20
-1.67617
 30
0.0
 10
-6.48311
 20
-1.67617
 30
0.0
 10
-6.57938
 20
-1.61518
 30
0.0
 10
-6.57938
 20
-1.61518
 30
0.0
 10
-6.57938
 20
-1.61518
 30
0.0
 10
-6.57938
 20
-1.61518
 30
0.0
 10
-6.66805
 20
-1.54655
 30
0.0
 10
-6.66805
 20
-1.54655
 30
0.0
 10
-6.66805
 20
-1.54655
 30
0.0
 10
-6.66805
 20
-1.54655
 30
0.0
 10
-6.75165
 20
-1.47031
 30
0.0
 10
-6.75165
 20
-1.47031
 30
0.0
 10
-6.75165
 20
-1.47031
 30
0.0
 10
-6.75165
 20
-1.47031
 30
0.0
 10
-6.82765
 20
-1.38644
 30
0.0
 10
-6.82765
 20
-1.38644
 30
0.0
 10
-6.82765
 20
-1.38644
 30
0.0
 10
-6.82765
 20
-1.38644
 30
0.0
 10
-6.89606
 20
-1.29749
 30
0.0
 10
-6.89606
 20
-1.29749
 30
0.0
 10
-6.89606
 20
-1.29749
 30
0.0
 10
-6.89606
 20
-1.29749
 30
0.0
 10
-6.95686
 20
-1.20345
 30
0.0
 10
-6.95686
 20
-1.20345
 30
0.0
 10
-6.95686
 20
-1.20345
 30
0.0
 10
-6.95686
 20
-1.20345
 30
0.0
 10
-7.00753
 20
-1.10179
 30
0.0
 10
-7.00753
 20
-1.10179
 30
0.0
 10
-7.00753
 20
-1.10179
 30
0.0
 10
-7.00753
 20
-1.10179
 30
0.0
 10
-7.05059
 20
-0.99759
 30
0.0
 10
-7.05059
 20
-0.99759
 30
0.0
 10
-7.05059
 20
-0.99759
 30
0.0
 10
-7.05059
 20
-0.99759
 30
0.0
 10
-7.08606
 20
-0.89084
 30
0.0
 10
-7.08606
 20
-0.89084
 30
0.0
 10
-7.08606
 20
-0.89084
 30
0.0
 10
-7.08606
 20
-0.89084
 30
0.0
 10
-7.10886
 20
-0.77902
 30
0.0
 10
-7.10886
 20
-0.77902
 30
0.0
 10
-7.10886
 20
-0.77902
 30
0.0
 10
-7.10886
 20
-0.77902
 30
0.0
 10
-7.12406
 20
-0.6672
 30
0.0
 10
-7.12406
 20
-0.6672
 30
0.0
 10
-7.12406
 20
-0.6672
 30
0.0
 10
-7.12406
 20
-0.6672
 30
0.0
 10
-7.12913
 20
-0.58587
 30
0.0
 10
-7.12913
 20
-0.58587
 30
0.0
 10
-7.12913
 20
-0.58587
 30
0.0
 10
-7.12913
 20
-0.58587
 30
0.0
 10
-7.12913
 20
-0.58333
 30
0.0
 10
-7.12913
 20
-0.58333
 30
0.0
 10
-7.12913
 20
-0.58333
 30
0.0
 10
-7.12913
 20
-0.58333
 30
0.0
 10
-7.13166
 20
-0.42829
 30
0.0
 10
-7.13166
 20
-0.42829
 30
0.0
 10
-7.13166
 20
-0.42829
 30
0.0
 10
-7.13166
 20
-0.42829
 30
0.0
 10
-7.1266
 20
-0.20973
 30
0.0
 10
-7.1266
 20
-0.20973
 30
0.0
 10
-7.1266
 20
-0.20973
 30
0.0
 10
-7.1266
 20
-0.20973
 30
0.0
 10
-7.1114
 20
0.0063
 30
0.0
 10
-7.1114
 20
0.0063
 30
0.0
 10
-7.1114
 20
0.0063
 30
0.0
 10
-7.1114
 20
0.0063
 30
0.0
 10
-7.08606
 20
0.22487
 30
0.0
 10
-7.08606
 20
0.22487
 30
0.0
 10
-7.08606
 20
0.22487
 30
0.0
 10
-7.08606
 20
0.22487
 30
0.0
 10
-7.05059
 20
0.43836
 30
0.0
 10
-7.05059
 20
0.43836
 30
0.0
 10
-7.05059
 20
0.43836
 30
0.0
 10
-7.05059
 20
0.43836
 30
0.0
 10
-7.00753
 20
0.65184
 30
0.0
 10
-7.00753
 20
0.65184
 30
0.0
 10
-7.00753
 20
0.65184
 30
0.0
 10
-7.00753
 20
0.65184
 30
0.0
 10
-6.95179
 20
0.86278
 30
0.0
 10
-6.95179
 20
0.86278
 30
0.0
 10
-6.95179
 20
0.86278
 30
0.0
 10
-6.95179
 20
0.86278
 30
0.0
 10
-6.88846
 20
1.07118
 30
0.0
 10
-6.88846
 20
1.07118
 30
0.0
 10
-6.88846
 20
1.07118
 30
0.0
 10
-6.88846
 20
1.07118
 30
0.0
 10
-6.81499
 20
1.27451
 30
0.0
 10
-6.81499
 20
1.27451
 30
0.0
 10
-6.81499
 20
1.27451
 30
0.0
 10
-6.81499
 20
1.27451
 30
0.0
 10
-6.73139
 20
1.47528
 30
0.0
 10
-6.73139
 20
1.47528
 30
0.0
 10
-6.73139
 20
1.47528
 30
0.0
 10
-6.73139
 20
1.47528
 30
0.0
 10
-6.64019
 20
1.67352
 30
0.0
 10
-6.64019
 20
1.67352
 30
0.0
 10
-6.64019
 20
1.67352
 30
0.0
 10
-6.64019
 20
1.67352
 30
0.0
 10
-6.53885
 20
1.86667
 30
0.0
 10
-6.53885
 20
1.86667
 30
0.0
 10
-6.53885
 20
1.86667
 30
0.0
 10
-6.53885
 20
1.86667
 30
0.0
 10
-6.42738
 20
2.05474
 30
0.0
 10
-6.42738
 20
2.05474
 30
0.0
 10
-6.42738
 20
2.05474
 30
0.0
 10
-6.42738
 20
2.05474
 30
0.0
 10
-6.30831
 20
2.23518
 30
0.0
 10
-6.30831
 20
2.23518
 30
0.0
 10
-6.30831
 20
2.23518
 30
0.0
 10
-6.30831
 20
2.23518
 30
0.0
 10
-6.18164
 20
2.41309
 30
0.0
 10
-6.18164
 20
2.41309
 30
0.0
 10
-6.18164
 20
2.41309
 30
0.0
 10
-6.18164
 20
2.41309
 30
0.0
 10
-6.04737
 20
2.58337
 30
0.0
 10
-6.04737
 20
2.58337
 30
0.0
 10
-6.04737
 20
2.58337
 30
0.0
 10
-6.04737
 20
2.58337
 30
0.0
 10
-5.9055
 20
2.74857
 30
0.0
 10
-5.9055
 20
2.74857
 30
0.0
 10
-5.9055
 20
2.74857
 30
0.0
 10
-5.9055
 20
2.74857
 30
0.0
 10
-5.75603
 20
2.90614
 30
0.0
 10
-5.75603
 20
2.90614
 30
0.0
 10
-5.75603
 20
2.90614
 30
0.0
 10
-5.75603
 20
2.90614
 30
0.0
 10
-5.59896
 20
3.05609
 30
0.0
 10
-5.59896
 20
3.05609
 30
0.0
 10
-5.59896
 20
3.05609
 30
0.0
 10
-5.59896
 20
3.05609
 30
0.0
 10
-5.43429
 20
3.19841
 30
0.0
 10
-5.43429
 20
3.19841
 30
0.0
 10
-5.43429
 20
3.19841
 30
0.0
 10
-5.43429
 20
3.19841
 30
0.0
 10
-5.26456
 20
3.33311
 30
0.0
 10
-5.26456
 20
3.33311
 30
0.0
 10
-5.26456
 20
3.33311
 30
0.0
 10
-5.26456
 20
3.33311
 30
0.0
 10
-5.08975
 20
3.46019
 30
0.0
 10
-5.08975
 20
3.46019
 30
0.0
 10
-5.08975
 20
3.46019
 30
0.0
 10
-5.08975
 20
3.46019
 30
0.0
 10
-4.90735
 20
3.57964
 30
0.0
 10
-4.90735
 20
3.57964
 30
0.0
 10
-4.90735
 20
3.57964
 30
0.0
 10
-4.90735
 20
3.57964
 30
0.0
 10
-4.71988
 20
3.69147
 30
0.0
 10
-4.71988
 20
3.69147
 30
0.0
 10
-4.71988
 20
3.69147
 30
0.0
 10
-4.71988
 20
3.69147
 30
0.0
 10
-4.52733
 20
3.79058
 30
0.0
 10
-4.52733
 20
3.79058
 30
0.0
 10
-4.52733
 20
3.79058
 30
0.0
 10
-4.52733
 20
3.79058
 30
0.0
 10
-4.33226
 20
3.88462
 30
0.0
 10
-4.33226
 20
3.88462
 30
0.0
 10
-4.33226
 20
3.88462
 30
0.0
 10
-4.33226
 20
3.88462
 30
0.0
 10
-4.1296
 20
3.96849
 30
0.0
 10
-4.1296
 20
3.96849
 30
0.0
 10
-4.1296
 20
3.96849
 30
0.0
 10
-4.1296
 20
3.96849
 30
0.0
 10
-4.01053
 20
4.01169
 30
0.0
 10
-4.01053
 20
4.01169
 30
0.0
 10
-4.01053
 20
4.01169
 30
0.0
 10
-4.01053
 20
4.01169
 30
0.0
 10
-4.00799
 20
4.01169
 30
0.0
 10
-4.00799
 20
4.01169
 30
0.0
 10
-4.00799
 20
4.01169
 30
0.0
 10
-4.00799
 20
4.01169
 30
0.0
 10
-3.98772
 20
4.01677
 30
0.0
 10
-3.98772
 20
4.01677
 30
0.0
 10
-3.98772
 20
4.01677
 30
0.0
 10
-3.98772
 20
4.01677
 30
0.0
 10
-3.89399
 20
4.04981
 30
0.0
 10
-3.89399
 20
4.04981
 30
0.0
 10
-3.89399
 20
4.04981
 30
0.0
 10
-3.89399
 20
4.04981
 30
0.0
 10
-3.80532
 20
4.09302
 30
0.0
 10
-3.80532
 20
4.09302
 30
0.0
 10
-3.80532
 20
4.09302
 30
0.0
 10
-3.80532
 20
4.09302
 30
0.0
 10
-3.71919
 20
4.14385
 30
0.0
 10
-3.71919
 20
4.14385
 30
0.0
 10
-3.71919
 20
4.14385
 30
0.0
 10
-3.71919
 20
4.14385
 30
0.0
 10
-3.63812
 20
4.20231
 30
0.0
 10
-3.63812
 20
4.20231
 30
0.0
 10
-3.63812
 20
4.20231
 30
0.0
 10
-3.63812
 20
4.20231
 30
0.0
 10
-3.56465
 20
4.27092
 30
0.0
 10
-3.56465
 20
4.27092
 30
0.0
 10
-3.56465
 20
4.27092
 30
0.0
 10
-3.56465
 20
4.27092
 30
0.0
 10
-3.49878
 20
4.34463
 30
0.0
 10
-3.49878
 20
4.34463
 30
0.0
 10
-3.49878
 20
4.34463
 30
0.0
 10
-3.49878
 20
4.34463
 30
0.0
 10
-3.44051
 20
4.42595
 30
0.0
 10
-3.44051
 20
4.42595
 30
0.0
 10
-3.44051
 20
4.42595
 30
0.0
 10
-3.44051
 20
4.42595
 30
0.0
 10
-3.38731
 20
4.50983
 30
0.0
 10
-3.38731
 20
4.50983
 30
0.0
 10
-3.38731
 20
4.50983
 30
0.0
 10
-3.38731
 20
4.50983
 30
0.0
 10
-3.34678
 20
4.60132
 30
0.0
 10
-3.34678
 20
4.60132
 30
0.0
 10
-3.34678
 20
4.60132
 30
0.0
 10
-3.34678
 20
4.60132
 30
0.0
 10
-3.31638
 20
4.68773
 30
0.0
 10
-3.31638
 20
4.68773
 30
0.0
 10
-3.31638
 20
4.68773
 30
0.0
 10
-3.31638
 20
4.68773
 30
0.0
 10
-3.31638
 20
5.26465
 30
0.0
 10
-3.31638
 20
5.26465
 30
0.0
 10
-3.31638
 20
5.26465
 30
0.0
 10
-3.31638
 20
5.26465
 30
0.0
 10
-3.31638
 20
5.26973
 30
0.0
 10
-3.31638
 20
5.26973
 30
0.0
 10
-3.31638
 20
5.26973
 30
0.0
 10
-3.31638
 20
5.26973
 30
0.0
 10
-3.31638
 20
5.27481
 30
0.0
 10
-3.31638
 20
5.27481
 30
0.0
 10
-3.31638
 20
5.27481
 30
0.0
 10
-3.31638
 20
5.27481
 30
0.0
 10
-3.31384
 20
5.30786
 30
0.0
 10
-3.31384
 20
5.30786
 30
0.0
 10
-3.31384
 20
5.30786
 30
0.0
 10
-3.31384
 20
5.30786
 30
0.0
 10
-3.30371
 20
5.34089
 30
0.0
 10
-3.30371
 20
5.34089
 30
0.0
 10
-3.30371
 20
5.34089
 30
0.0
 10
-3.30371
 20
5.34089
 30
0.0
 10
-3.28851
 20
5.36885
 30
0.0
 10
-3.28851
 20
5.36885
 30
0.0
 10
-3.28851
 20
5.36885
 30
0.0
 10
-3.28851
 20
5.36885
 30
0.0
 10
-3.26824
 20
5.39427
 30
0.0
 10
-3.26824
 20
5.39427
 30
0.0
 10
-3.26824
 20
5.39427
 30
0.0
 10
-3.26824
 20
5.39427
 30
0.0
 10
-3.24291
 20
5.41714
 30
0.0
 10
-3.24291
 20
5.41714
 30
0.0
 10
-3.24291
 20
5.41714
 30
0.0
 10
-3.24291
 20
5.41714
 30
0.0
 10
-3.21251
 20
5.43239
 30
0.0
 10
-3.21251
 20
5.43239
 30
0.0
 10
-3.21251
 20
5.43239
 30
0.0
 10
-3.21251
 20
5.43239
 30
0.0
 10
-3.1821
 20
5.44256
 30
0.0
 10
-3.1821
 20
5.44256
 30
0.0
 10
-3.1821
 20
5.44256
 30
0.0
 10
-3.1821
 20
5.44256
 30
0.0
 10
-3.15677
 20
5.44256
 30
0.0
 10
-3.15677
 20
5.44256
 30
0.0
 10
-3.15677
 20
5.44256
 30
0.0
 10
-3.15677
 20
5.44256
 30
0.0
 10
-3.15424
 20
5.44509
 30
0.0
 10
-3.15424
 20
5.44509
 30
0.0
 10
-3.15424
 20
5.44509
 30
0.0
 10
-3.15424
 20
5.44509
 30
0.0
 10
-3.14917
 20
5.44509
 30
0.0
 10
-3.14917
 20
5.44509
 30
0.0
 10
-3.14917
 20
5.44509
 30
0.0
 10
-3.14917
 20
5.44509
 30
0.0
 10
0.82571
 20
5.44509
 30
0.0
 10
0.82571
 20
5.44509
 30
0.0
 10
0.82571
 20
5.44509
 30
0.0
 10
0.82571
 20
5.44509
 30
0.0
 10
0.83078
 20
5.44509
 30
0.0
 10
0.83078
 20
5.44509
 30
0.0
 10
0.83078
 20
5.44509
 30
0.0
 10
0.83078
 20
5.44509
 30
0.0
 10
0.83332
 20
5.44256
 30
0.0
 10
0.83332
 20
5.44256
 30
0.0
 10
0.83332
 20
5.44256
 30
0.0
 10
0.83332
 20
5.44256
 30
0.0
 10
0.86625
 20
5.44001
 30
0.0
 10
0.86625
 20
5.44001
 30
0.0
 10
0.86625
 20
5.44001
 30
0.0
 10
0.86625
 20
5.44001
 30
0.0
 10
0.89665
 20
5.42984
 30
0.0
 10
0.89665
 20
5.42984
 30
0.0
 10
0.89665
 20
5.42984
 30
0.0
 10
0.89665
 20
5.42984
 30
0.0
 10
0.92706
 20
5.4146
 30
0.0
 10
0.92706
 20
5.4146
 30
0.0
 10
0.92706
 20
5.4146
 30
0.0
 10
0.92706
 20
5.4146
 30
0.0
 10
0.95239
 20
5.39427
 30
0.0
 10
0.95239
 20
5.39427
 30
0.0
 10
0.95239
 20
5.39427
 30
0.0
 10
0.95239
 20
5.39427
 30
0.0
 10
0.97265
 20
5.36885
 30
0.0
 10
0.97265
 20
5.36885
 30
0.0
 10
0.97265
 20
5.36885
 30
0.0
 10
0.97265
 20
5.36885
 30
0.0
 10
0.99039
 20
5.33835
 30
0.0
 10
0.99039
 20
5.33835
 30
0.0
 10
0.99039
 20
5.33835
 30
0.0
 10
0.99039
 20
5.33835
 30
0.0
 10
0.99799
 20
5.30531
 30
0.0
 10
0.99799
 20
5.30531
 30
0.0
 10
0.99799
 20
5.30531
 30
0.0
 10
0.99799
 20
5.30531
 30
0.0
 10
1.00052
 20
5.27735
 30
0.0
 10
1.00052
 20
5.27735
 30
0.0
 10
1.00052
 20
5.27735
 30
0.0
 10
1.00052
 20
5.27735
 30
0.0
 10
1.00306
 20
5.27227
 30
0.0
 10
1.00306
 20
5.27227
 30
0.0
 10
1.00306
 20
5.27227
 30
0.0
 10
1.00306
 20
5.27227
 30
0.0
 10
1.00306
 20
4.67756
 30
0.0
 10
1.00306
 20
4.67756
 30
0.0
 10
1.00306
 20
4.67756
 30
0.0
 10
1.00306
 20
4.67756
 30
0.0
 10
1.03346
 20
4.59115
 30
0.0
 10
1.03346
 20
4.59115
 30
0.0
 10
1.03346
 20
4.59115
 30
0.0
 10
1.03346
 20
4.59115
 30
0.0
 10
1.07399
 20
4.49966
 30
0.0
 10
1.07399
 20
4.49966
 30
0.0
 10
1.07399
 20
4.49966
 30
0.0
 10
1.07399
 20
4.49966
 30
0.0
 10
1.12719
 20
4.41579
 30
0.0
 10
1.12719
 20
4.41579
 30
0.0
 10
1.12719
 20
4.41579
 30
0.0
 10
1.12719
 20
4.41579
 30
0.0
 10
1.18546
 20
4.33446
 30
0.0
 10
1.18546
 20
4.33446
 30
0.0
 10
1.18546
 20
4.33446
 30
0.0
 10
1.18546
 20
4.33446
 30
0.0
 10
1.25133
 20
4.26076
 30
0.0
 10
1.25133
 20
4.26076
 30
0.0
 10
1.25133
 20
4.26076
 30
0.0
 10
1.25133
 20
4.26076
 30
0.0
 10
1.32733
 20
4.19468
 30
0.0
 10
1.32733
 20
4.19468
 30
0.0
 10
1.32733
 20
4.19468
 30
0.0
 10
1.32733
 20
4.19468
 30
0.0
 10
1.40587
 20
4.13369
 30
0.0
 10
1.40587
 20
4.13369
 30
0.0
 10
1.40587
 20
4.13369
 30
0.0
 10
1.40587
 20
4.13369
 30
0.0
 10
1.492
 20
4.08285
 30
0.0
 10
1.492
 20
4.08285
 30
0.0
 10
1.492
 20
4.08285
 30
0.0
 10
1.492
 20
4.08285
 30
0.0
 10
1.58067
 20
4.03965
 30
0.0
 10
1.58067
 20
4.03965
 30
0.0
 10
1.58067
 20
4.03965
 30
0.0
 10
1.58067
 20
4.03965
 30
0.0
 10
1.6744
 20
4.00661
 30
0.0
 10
1.6744
 20
4.00661
 30
0.0
 10
1.6744
 20
4.00661
 30
0.0
 10
1.6744
 20
4.00661
 30
0.0
 10
1.6972
 20
4.00153
 30
0.0
 10
1.6972
 20
4.00153
 30
0.0
 10
1.6972
 20
4.00153
 30
0.0
 10
1.6972
 20
4.00153
 30
0.0
 10
1.81627
 20
3.95832
 30
0.0
 10
1.81627
 20
3.95832
 30
0.0
 10
1.81627
 20
3.95832
 30
0.0
 10
1.81627
 20
3.95832
 30
0.0
 10
2.01894
 20
3.87445
 30
0.0
 10
2.01894
 20
3.87445
 30
0.0
 10
2.01894
 20
3.87445
 30
0.0
 10
2.01894
 20
3.87445
 30
0.0
 10
2.21401
 20
3.78296
 30
0.0
 10
2.21401
 20
3.78296
 30
0.0
 10
2.21401
 20
3.78296
 30
0.0
 10
2.21401
 20
3.78296
 30
0.0
 10
2.40656
 20
3.6813
 30
0.0
 10
2.40656
 20
3.6813
 30
0.0
 10
2.40656
 20
3.6813
 30
0.0
 10
2.40656
 20
3.6813
 30
0.0
 10
2.59403
 20
3.56947
 30
0.0
 10
2.59403
 20
3.56947
 30
0.0
 10
2.59403
 20
3.56947
 30
0.0
 10
2.59403
 20
3.56947
 30
0.0
 10
2.77643
 20
3.45002
 30
0.0
 10
2.77643
 20
3.45002
 30
0.0
 10
2.77643
 20
3.45002
 30
0.0
 10
2.77643
 20
3.45002
 30
0.0
 10
2.95124
 20
3.32294
 30
0.0
 10
2.95124
 20
3.32294
 30
0.0
 10
2.95124
 20
3.32294
 30
0.0
 10
2.95124
 20
3.32294
 30
0.0
 10
3.12097
 20
3.18825
 30
0.0
 10
3.12097
 20
3.18825
 30
0.0
 10
3.12097
 20
3.18825
 30
0.0
 10
3.12097
 20
3.18825
 30
0.0
 10
3.28564
 20
3.04593
 30
0.0
 10
3.28564
 20
3.04593
 30
0.0
 10
3.28564
 20
3.04593
 30
0.0
 10
3.28564
 20
3.04593
 30
0.0
 10
3.44271
 20
2.89597
 30
0.0
 10
3.44271
 20
2.89597
 30
0.0
 10
3.44271
 20
2.89597
 30
0.0
 10
3.44271
 20
2.89597
 30
0.0
 10
3.59218
 20
2.73841
 30
0.0
 10
3.59218
 20
2.73841
 30
0.0
 10
3.59218
 20
2.73841
 30
0.0
 10
3.59218
 20
2.73841
 30
0.0
 10
3.73405
 20
2.57321
 30
0.0
 10
3.73405
 20
2.57321
 30
0.0
 10
3.73405
 20
2.57321
 30
0.0
 10
3.73405
 20
2.57321
 30
0.0
 10
3.86832
 20
2.40293
 30
0.0
 10
3.86832
 20
2.40293
 30
0.0
 10
3.86832
 20
2.40293
 30
0.0
 10
3.86832
 20
2.40293
 30
0.0
 10
3.99752
 20
2.22502
 30
0.0
 10
3.99752
 20
2.22502
 30
0.0
 10
3.99752
 20
2.22502
 30
0.0
 10
3.99752
 20
2.22502
 30
0.0
 10
4.11406
 20
2.04458
 30
0.0
 10
4.11406
 20
2.04458
 30
0.0
 10
4.11406
 20
2.04458
 30
0.0
 10
4.11406
 20
2.04458
 30
0.0
 10
4.22553
 20
1.8565
 30
0.0
 10
4.22553
 20
1.8565
 30
0.0
 10
4.22553
 20
1.8565
 30
0.0
 10
4.22553
 20
1.8565
 30
0.0
 10
4.32686
 20
1.66335
 30
0.0
 10
4.32686
 20
1.66335
 30
0.0
 10
4.32686
 20
1.66335
 30
0.0
 10
4.32686
 20
1.66335
 30
0.0
 10
4.41806
 20
1.46511
 30
0.0
 10
4.41806
 20
1.46511
 30
0.0
 10
4.41806
 20
1.46511
 30
0.0
 10
4.41806
 20
1.46511
 30
0.0
 10
4.50167
 20
1.26434
 30
0.0
 10
4.50167
 20
1.26434
 30
0.0
 10
4.50167
 20
1.26434
 30
0.0
 10
4.50167
 20
1.26434
 30
0.0
 10
4.57514
 20
1.06102
 30
0.0
 10
4.57514
 20
1.06102
 30
0.0
 10
4.57514
 20
1.06102
 30
0.0
 10
4.57514
 20
1.06102
 30
0.0
 10
4.63847
 20
0.85262
 30
0.0
 10
4.63847
 20
0.85262
 30
0.0
 10
4.63847
 20
0.85262
 30
0.0
 10
4.63847
 20
0.85262
 30
0.0
 10
4.69421
 20
0.64167
 30
0.0
 10
4.69421
 20
0.64167
 30
0.0
 10
4.69421
 20
0.64167
 30
0.0
 10
4.69421
 20
0.64167
 30
0.0
 10
4.73727
 20
0.42819
 30
0.0
 10
4.73727
 20
0.42819
 30
0.0
 10
4.73727
 20
0.42819
 30
0.0
 10
4.73727
 20
0.42819
 30
0.0
 10
4.77274
 20
0.2147
 30
0.0
 10
4.77274
 20
0.2147
 30
0.0
 10
4.77274
 20
0.2147
 30
0.0
 10
4.77274
 20
0.2147
 30
0.0
 10
4.79808
 20
-0.00133
 30
0.0
 10
4.79808
 20
-0.00133
 30
0.0
 10
4.79808
 20
-0.00133
 30
0.0
 10
4.79808
 20
-0.00133
 30
0.0
 10
4.81328
 20
-0.2199
 30
0.0
 10
4.81328
 20
-0.2199
 30
0.0
 10
4.81328
 20
-0.2199
 30
0.0
 10
4.81328
 20
-0.2199
 30
0.0
 10
4.81834
 20
-0.43846
 30
0.0
 10
4.81834
 20
-0.43846
 30
0.0
 10
4.81834
 20
-0.43846
 30
0.0
 10
4.81834
 20
-0.43846
 30
0.0
 10
4.81581
 20
-0.58841
 30
0.0
 10
4.81581
 20
-0.58841
 30
0.0
 10
4.81581
 20
-0.58841
 30
0.0
 10
4.81581
 20
-0.58841
 30
0.0
 10
4.81074
 20
-0.66974
 30
0.0
 10
4.81074
 20
-0.66974
 30
0.0
 10
4.81074
 20
-0.66974
 30
0.0
 10
4.81074
 20
-0.66974
 30
0.0
 10
4.79808
 20
-0.78156
 30
0.0
 10
4.79808
 20
-0.78156
 30
0.0
 10
4.79808
 20
-0.78156
 30
0.0
 10
4.79808
 20
-0.78156
 30
0.0
 10
4.77274
 20
-0.89084
 30
0.0
 10
4.77274
 20
-0.89084
 30
0.0
 10
4.77274
 20
-0.89084
 30
0.0
 10
4.77274
 20
-0.89084
 30
0.0
 10
4.73981
 20
-1.00013
 30
0.0
 10
4.73981
 20
-1.00013
 30
0.0
 10
4.73981
 20
-1.00013
 30
0.0
 10
4.73981
 20
-1.00013
 30
0.0
 10
4.69421
 20
-1.10434
 30
0.0
 10
4.69421
 20
-1.10434
 30
0.0
 10
4.69421
 20
-1.10434
 30
0.0
 10
4.69421
 20
-1.10434
 30
0.0
 10
4.64353
 20
-1.20345
 30
0.0
 10
4.64353
 20
-1.20345
 30
0.0
 10
4.64353
 20
-1.20345
 30
0.0
 10
4.64353
 20
-1.20345
 30
0.0
 10
4.58274
 20
-1.30003
 30
0.0
 10
4.58274
 20
-1.30003
 30
0.0
 10
4.58274
 20
-1.30003
 30
0.0
 10
4.58274
 20
-1.30003
 30
0.0
 10
4.51433
 20
-1.38898
 30
0.0
 10
4.51433
 20
-1.38898
 30
0.0
 10
4.51433
 20
-1.38898
 30
0.0
 10
4.51433
 20
-1.38898
 30
0.0
 10
4.43833
 20
-1.47285
 30
0.0
 10
4.43833
 20
-1.47285
 30
0.0
 10
4.43833
 20
-1.47285
 30
0.0
 10
4.43833
 20
-1.47285
 30
0.0
 10
4.35473
 20
-1.5491
 30
0.0
 10
4.35473
 20
-1.5491
 30
0.0
 10
4.35473
 20
-1.5491
 30
0.0
 10
4.35473
 20
-1.5491
 30
0.0
 10
4.26606
 20
-1.61772
 30
0.0
 10
4.26606
 20
-1.61772
 30
0.0
 10
4.26606
 20
-1.61772
 30
0.0
 10
4.26606
 20
-1.61772
 30
0.0
 10
4.16979
 20
-1.67871
 30
0.0
 10
4.16979
 20
-1.67871
 30
0.0
 10
4.16979
 20
-1.67871
 30
0.0
 10
4.16979
 20
-1.67871
 30
0.0
 10
4.07099
 20
-1.72954
 30
0.0
 10
4.07099
 20
-1.72954
 30
0.0
 10
4.07099
 20
-1.72954
 30
0.0
 10
4.07099
 20
-1.72954
 30
0.0
 10
3.96713
 20
-1.77529
 30
0.0
 10
3.96713
 20
-1.77529
 30
0.0
 10
3.96713
 20
-1.77529
 30
0.0
 10
3.96713
 20
-1.77529
 30
0.0
 10
3.85819
 20
-1.80833
 30
0.0
 10
3.85819
 20
-1.80833
 30
0.0
 10
3.85819
 20
-1.80833
 30
0.0
 10
3.85819
 20
-1.80833
 30
0.0
 10
3.74925
 20
-1.83374
 30
0.0
 10
3.74925
 20
-1.83374
 30
0.0
 10
3.74925
 20
-1.83374
 30
0.0
 10
3.74925
 20
-1.83374
 30
0.0
 10
3.66312
 20
-1.8439
 30
0.0
 10
3.66312
 20
-1.8439
 30
0.0
 10
3.66312
 20
-1.8439
 30
0.0
 10
3.66312
 20
-1.8439
 30
0.0
 10
3.66312
 20
-1.8439
 30
0.0
 10
3.66312
 20
-1.8439
 30
0.0
 10
3.66312
 20
-1.8439
 30
0.0
 10
3.66312
 20
-1.8439
 30
0.0
 10
3.65805
 20
-1.84645
 30
0.0
 10
3.65805
 20
-1.84645
 30
0.0
 10
3.65805
 20
-1.84645
 30
0.0
 10
3.65805
 20
-1.84645
 30
0.0
 10
3.47058
 20
-1.86932
 30
0.0
 10
3.47058
 20
-1.86932
 30
0.0
 10
3.47058
 20
-1.86932
 30
0.0
 10
3.47058
 20
-1.86932
 30
0.0
 10
3.27297
 20
-1.88203
 30
0.0
 10
3.27297
 20
-1.88203
 30
0.0
 10
3.27297
 20
-1.88203
 30
0.0
 10
3.27297
 20
-1.88203
 30
0.0
 10
3.07537
 20
-1.88711
 30
0.0
 10
3.07537
 20
-1.88711
 30
0.0
 10
3.07537
 20
-1.88711
 30
0.0
 10
3.07537
 20
-1.88711
 30
0.0
 10
2.87776
 20
-1.88203
 30
0.0
 10
2.87776
 20
-1.88203
 30
0.0
 10
2.87776
 20
-1.88203
 30
0.0
 10
2.87776
 20
-1.88203
 30
0.0
 10
2.68269
 20
-1.86932
 30
0.0
 10
2.68269
 20
-1.86932
 30
0.0
 10
2.68269
 20
-1.86932
 30
0.0
 10
2.68269
 20
-1.86932
 30
0.0
 10
2.48509
 20
-1.84645
 30
0.0
 10
2.48509
 20
-1.84645
 30
0.0
 10
2.48509
 20
-1.84645
 30
0.0
 10
2.48509
 20
-1.84645
 30
0.0
 10
2.29255
 20
-1.81341
 30
0.0
 10
2.29255
 20
-1.81341
 30
0.0
 10
2.29255
 20
-1.81341
 30
0.0
 10
2.29255
 20
-1.81341
 30
0.0
 10
2.09748
 20
-1.77275
 30
0.0
 10
2.09748
 20
-1.77275
 30
0.0
 10
2.09748
 20
-1.77275
 30
0.0
 10
2.09748
 20
-1.77275
 30
0.0
 10
1.90748
 20
-1.72192
 30
0.0
 10
1.90748
 20
-1.72192
 30
0.0
 10
1.90748
 20
-1.72192
 30
0.0
 10
1.90748
 20
-1.72192
 30
0.0
 10
1.72001
 20
-1.66346
 30
0.0
 10
1.72001
 20
-1.66346
 30
0.0
 10
1.72001
 20
-1.66346
 30
0.0
 10
1.72001
 20
-1.66346
 30
0.0
 10
1.53253
 20
-1.59739
 30
0.0
 10
1.53253
 20
-1.59739
 30
0.0
 10
1.53253
 20
-1.59739
 30
0.0
 10
1.53253
 20
-1.59739
 30
0.0
 10
1.35013
 20
-1.52114
 30
0.0
 10
1.35013
 20
-1.52114
 30
0.0
 10
1.35013
 20
-1.52114
 30
0.0
 10
1.35013
 20
-1.52114
 30
0.0
 10
1.17279
 20
-1.43727
 30
0.0
 10
1.17279
 20
-1.43727
 30
0.0
 10
1.17279
 20
-1.43727
 30
0.0
 10
1.17279
 20
-1.43727
 30
0.0
 10
0.99799
 20
-1.34578
 30
0.0
 10
0.99799
 20
-1.34578
 30
0.0
 10
0.99799
 20
-1.34578
 30
0.0
 10
0.99799
 20
-1.34578
 30
0.0
 10
0.82825
 20
-1.24411
 30
0.0
 10
0.82825
 20
-1.24411
 30
0.0
 10
0.82825
 20
-1.24411
 30
0.0
 10
0.82825
 20
-1.24411
 30
0.0
 10
0.66358
 20
-1.13737
 30
0.0
 10
0.66358
 20
-1.13737
 30
0.0
 10
0.66358
 20
-1.13737
 30
0.0
 10
0.66358
 20
-1.13737
 30
0.0
 10
0.50144
 20
-1.02047
 30
0.0
 10
0.50144
 20
-1.02047
 30
0.0
 10
0.50144
 20
-1.02047
 30
0.0
 10
0.50144
 20
-1.02047
 30
0.0
 10
0.46851
 20
-0.99251
 30
0.0
 10
0.46851
 20
-0.99251
 30
0.0
 10
0.46851
 20
-0.99251
 30
0.0
 10
0.46851
 20
-0.99251
 30
0.0
 10
-0.77052
 20
-0.99018
 30
0.0
 10
-0.77052
 20
-0.99018
 30
0.0
 10
-0.77052
 20
-0.99018
 30
0.0
 10
-0.77052
 20
-0.99018
 30
0.0
 10
-0.77
 20
-0.98205
 30
0.0
 10
-0.77
 20
-0.98205
 30
0.0
 10
-0.77
 20
-0.98205
 30
0.0
 10
-0.77
 20
-0.98205
 30
0.0
 10
-0.7715
 20
-0.44213
 30
0.0
 10
-0.7715
 20
-0.44213
 30
0.0
 10
-0.7715
 20
-0.44213
 30
0.0
 10
-0.7715
 20
-0.44213
 30
0.0
 10
-1.58698
 20
-0.99251
 30
0.0
 10
-1.58698
 20
-0.99251
 30
0.0
 10
-1.58698
 20
-0.99251
 30
0.0
 10
-1.58698
 20
-0.99251
 30
0.0
 10
-1.5506
 20
-0.99251
 30
0.0
 10
-1.5506
 20
-0.99251
 30
0.0
 10
-1.5506
 20
-0.99251
 30
0.0
 10
-1.5506
 20
-0.99251
 30
0.0
 10
-1.55567
 20
-0.99251
 30
0.0
 10
-1.55567
 20
-0.99251
 30
0.0
 10
-1.55567
 20
-0.99251
 30
0.0
 10
-1.55567
 20
-0.99251
 30
0.0
 10
-2.78943
 20
-0.99505
 30
0.0
 10
-2.78943
 20
-0.99505
 30
0.0
 10
-2.78943
 20
-0.99505
 30
0.0
 10
-2.78943
 20
-0.99505
 30
0.0
 10
-2.81476
 20
-1.01284
 30
0.0
 10
-2.81476
 20
-1.01284
 30
0.0
 10
-2.81476
 20
-1.01284
 30
0.0
 10
-2.81476
 20
-1.01284
 30
0.0
 10
-2.97437
 20
-1.12975
 30
0.0
 10
-2.97437
 20
-1.12975
 30
0.0
 10
-2.97437
 20
-1.12975
 30
0.0
 10
-2.97437
 20
-1.12975
 30
0.0
 10
-3.14157
 20
-1.23649
 30
0.0
 10
-3.14157
 20
-1.23649
 30
0.0
 10
-3.14157
 20
-1.23649
 30
0.0
 10
-3.14157
 20
-1.23649
 30
0.0
 10
-3.31131
 20
-1.33815
 30
0.0
 10
-3.31131
 20
-1.33815
 30
0.0
 10
-3.31131
 20
-1.33815
 30
0.0
 10
-3.31131
 20
-1.33815
 30
0.0
 10
-3.48611
 20
-1.42964
 30
0.0
 10
-3.48611
 20
-1.42964
 30
0.0
 10
-3.48611
 20
-1.42964
 30
0.0
 10
-3.48611
 20
-1.42964
 30
0.0
 10
-3.66345
 20
-1.51351
 30
0.0
 10
-3.66345
 20
-1.51351
 30
0.0
 10
-3.66345
 20
-1.51351
 30
0.0
 10
-3.66345
 20
-1.51351
 30
0.0
 10
-3.84585
 20
-1.58976
 30
0.0
 10
-3.84585
 20
-1.58976
 30
0.0
 10
-3.84585
 20
-1.58976
 30
0.0
 10
-3.84585
 20
-1.58976
 30
0.0
 10
-4.03079
 20
-1.65838
 30
0.0
 10
-4.03079
 20
-1.65838
 30
0.0
 10
-4.03079
 20
-1.65838
 30
0.0
 10
-4.03079
 20
-1.65838
 30
0.0
 10
-4.2208
 20
-1.71683
 30
0.0
 10
-4.2208
 20
-1.71683
 30
0.0
 10
-4.2208
 20
-1.71683
 30
0.0
 10
-4.2208
 20
-1.71683
 30
0.0
 10
-4.4108
 20
-1.76512
 30
0.0
 10
-4.4108
 20
-1.76512
 30
0.0
 10
-4.4108
 20
-1.76512
 30
0.0
 10
-4.4108
 20
-1.76512
 30
0.0
 10
-4.60334
 20
-1.80578
 30
0.0
 10
-4.60334
 20
-1.80578
 30
0.0
 10
-4.60334
 20
-1.80578
 30
0.0
 10
-4.60334
 20
-1.80578
 30
0.0
 10
-4.79841
 20
-1.83883
 30
0.0
 10
-4.79841
 20
-1.83883
 30
0.0
 10
-4.79841
 20
-1.83883
 30
0.0
 10
-4.79841
 20
-1.83883
 30
0.0
 10
-4.99601
 20
-1.8617
 30
0.0
 10
-4.99601
 20
-1.8617
 30
0.0
 10
-4.99601
 20
-1.8617
 30
0.0
 10
-4.99601
 20
-1.8617
 30
0.0
 10
-5.19108
 20
-1.87441
 30
0.0
 10
-5.19108
 20
-1.87441
 30
0.0
 10
-5.19108
 20
-1.87441
 30
0.0
 10
-5.19108
 20
-1.87441
 30
0.0
 10
-5.38869
 20
-1.87949
 30
0.0
 10
-5.38869
 20
-1.87949
 30
0.0
 10
-5.38869
 20
-1.87949
 30
0.0
 10
-5.38869
 20
-1.87949
 30
0.0
 10
-5.58629
 20
-1.87441
 30
0.0
 10
-5.58629
 20
-1.87441
 30
0.0
 10
-5.58629
 20
-1.87441
 30
0.0
 10
-5.58629
 20
-1.87441
 30
0.0
 10
-5.7839
 20
-1.8617
 30
0.0
 10
-5.7839
 20
-1.8617
 30
0.0
 10
-5.7839
 20
-1.8617
 30
0.0
 10
-5.7839
 20
-1.8617
 30
0.0
 10
-5.87257
 20
-1.85153
 30
0.0
 10
-5.87257
 20
-1.85153
 30
0.0
 10
-5.87257
 20
-1.85153
 30
0.0
 10
-5.87257
 20
-1.85153
 30
0.0
 10
-5.87763
 20
-1.84899
 30
0.0
 10
-5.87763
 20
-1.84899
 30
0.0
  0
SPLINE
  5
67
330
1F
100
AcDbEntity
  8
layer 1
 62
   250
370
    20
100
AcDbSpline
210
0.0
220
0.0
230
1.0
 70
    11
 71
     3
 72
    36
 73
    32
 74
     0
 42
0.0000000001
 43
0.0000000001
 40
0.0
 40
0.0
 40
0.0
 40
0.0
 40
0.125
 40
0.125
 40
0.125
 40
0.125
 40
0.25
 40
0.25
 40
0.25
 40
0.25
 40
0.375
 40
0.375
 40
0.375
 40
0.375
 40
0.5
 40
0.5
 40
0.5
 40
0.5
 40
0.625
 40
0.625
 40
0.625
 40
0.625
 40
0.75
 40
0.75
 40
0.75
 40
0.75
 40
0.875
 40
0.875
 40
0.875
 40
0.875
 40
1.0
 40
1.0
 40
1.0
 40
1.0
 10
0.18912
 20
3.93306
 30
0.0
 10
0.18912
 20
3.93306
 30
0.0
 10
0.45239
 20
3.93306
 30
0.0
 10
0.45239
 20
3.93306
 30
0.0
 10
0.45239
 20
3.93306
 30
0.0
 10
0.45312
 20
3.93306
 30
0.0
 10
0.45372
 20
3.93246
 30
0.0
 10
0.45372
 20
3.93173
 30
0.0
 10
0.45372
 20
3.93173
 30
0.0
 10
0.45372
 20
3.93173
 30
0.0
 10
0.45372
 20
3.66846
 30
0.0
 10
0.45372
 20
3.66846
 30
0.0
 10
0.45372
 20
3.66846
 30
0.0
 10
0.45372
 20
3.66772
 30
0.0
 10
0.45312
 20
3.66713
 30
0.0
 10
0.45239
 20
3.66713
 30
0.0
 10
0.45239
 20
3.66713
 30
0.0
 10
0.45239
 20
3.66713
 30
0.0
 10
0.18912
 20
3.66713
 30
0.0
 10
0.18912
 20
3.66713
 30
0.0
 10
0.18912
 20
3.66713
 30
0.0
 10
0.18838
 20
3.66713
 30
0.0
 10
0.18779
 20
3.66772
 30
0.0
 10
0.18779
 20
3.66846
 30
0.0
 10
0.18779
 20
3.66846
 30
0.0
 10
0.18779
 20
3.66846
 30
0.0
 10
0.18779
 20
3.93173
 30
0.0
 10
0.18779
 20
3.93173
 30
0.0
 10
0.18779
 20
3.93173
 30
0.0
 10
0.18779
 20
3.93246
 30
0.0
 10
0.18838
 20
3.93306
 30
0.0
 10
0.18912
 20
3.93306
 30
0.0
  0
SPLINE
  5
68
330
1F
100
AcDbEntity
  8
layer 1
 62
   250
370
    20
100
AcDbSpline
210
0.0
220
0.0
230
1.0
 70
    11
 71
     3
 72
    20
 73
    16
 74
     0
 42
0.0000000001
 43
0.0000000001
 40
0.0
 40
0.0
 40
0.0
 40
0.0
 40
0.25
 40
0.25
 40
0.25
 40
0.25
 40
0.5
 40
0.5
 40
0.5
 40
0.5
 40
0.75
 40
0.75
 40
0.75
 40
0.75
 40
1.0
 40
1.0
 40
1.0
 40
1.0
 10
-3.45536
 20
3.81411
 30
0.0
 10
-3.37253
 20
3.81411
 30
0.0
 10
-3.30536
 20
3.74448
 30
0.0
 10
-3.30536
 20
3.65863
 30
0.0
 10
-3.30536
 20
3.65863
 30
0.0
 10
-3.30536
 20
3.57277
 30
0.0
 10
-3.37253
 20
3.50314
 30
0.0
 10
-3.45536
 20
3.50314
 30
0.0
 10
-3.45536
 20
3.50314
 30
0.0
 10
-3.53819
 20
3.50314
 30
0.0
 10
-3.60536
 20
3.57277
 30
0.0
 10
-3.60536
 20
3.65863
 30
0.0
 10
-3.60536
 20
3.65863
 30
0.0
 10
-3.60536
 20
3.74448
 30
0.0
 10
-3.53819
 20
3.81411
 30
0.0
 10
-3.45536
 20
3.81411
 30
0.0
  0
ENDSEC
  0
SECTION
  2
OBJECTS
  0
DICTIONARY
  5
C
330
0
100
AcDbDictionary
281
     1
  3
ACAD_GROUP
350
D
  3
ACAD_LAYOUT
350
1A
  3
ACAD_MLEADERSTYLE
350
6A
  3
ACAD_MLINESTYLE
350
17
  3
ACAD_PLOTSETTINGS
350
19
  3
ACAD_PLOTSTYLENAME
350
E
  3
ACAD_SCALELIST
350
3B
  3
ACAD_TABLESTYLE
350
69
  3
ACAD_VISUALSTYLE
350
2A
  0
DICTIONARY
  5
D
102
{ACAD_REACTORS
330
C
102
}
330
C
100
AcDbDictionary
281
     1
  0
DICTIONARY
  5
1A
102
{ACAD_REACTORS
330
C
102
}
330
C
100
AcDbDictionary
281
     1
  3
Layout1
350
1E
  3
Layout2
350
26
  3
Model
350
22
  0
DICTIONARY
  5
6A
102
{ACAD_REACTORS
330
C
102
}
330
C
100
AcDbDictionary
281
     1
  0
DICTIONARY
  5
17
102
{ACAD_REACTORS
330
C
102
}
330
C
100
AcDbDictionary
281
     1
  3
Standard
350
18
  0
DICTIONARY
  5
19
102
{ACAD_REACTORS
330
C
102
}
330
C
100
AcDbDictionary
281
     1
  0
ACDBDICTIONARYWDFLT
  5
E
102
{ACAD_REACTORS
330
C
102
}
330
C
100
AcDbDictionary
281
     1
  3
Normal
350
F
100
AcDbDictionaryWithDefault
340
F
  0
DICTIONARY
  5
3B
102
{ACAD_REACTORS
330
C
102
}
330
C
100
AcDbDictionary
281
     1
  3
A0
350
3C
  3
A1
350
3D
  3
A2
350
3E
  3
A3
350
3F
  3
A4
350
40
  3
A5
350
41
  3
A6
350
42
  3
A7
350
43
  3
A8
350
44
  3
A9
350
45
  3
B0
350
46
  3
B1
350
47
  3
B2
350
48
  3
B3
350
49
  3
B4
350
4A
  3
B5
350
4B
  3
B6
350
4C
  3
B7
350
4D
  3
B8
350
4E
  3
B9
350
4F
  3
C0
350
50
  3
C1
350
51
  3
C2
350
52
  3
C3
350
53
  3
C4
350
54
  3
C5
350
55
  3
C6
350
56
  3
C7
350
57
  3
C8
350
58
  3
C9
350
59
  3
D0
350
5A
  3
D1
350
5B
  3
D2
350
5C
  0
DICTIONARY
  5
69
102
{ACAD_REACTORS
330
C
102
}
330
C
100
AcDbDictionary
281
     1
  0
DICTIONARY
  5
2A
102
{ACAD_REACTORS
330
C
102
}
330
C
100
AcDbDictionary
281
     1
  3
2dWireframe
350
2F
  3
3D Hidden
350
31
  3
3dWireframe
350
30
  3
Basic
350
32
  3
Brighten
350
36
  3
ColorChange
350
3A
  3
Conceptual
350
34
  3
Dim
350
35
  3
Facepattern
350
39
  3
Flat
350
2B
  3
FlatWithEdges
350
2C
  3
Gouraud
350
2D
  3
GouraudWithEdges
350
2E
  3
Linepattern
350
38
  3
Realistic
350
33
  3
Thicken
350
37
  0
LAYOUT
  5
1E
102
{ACAD_REACTORS
330
1A
102
}
330
1A
100
AcDbPlotSettings
  1

  2
none_device
  4

  6

 40
0.0
 41
0.0
 42
0.0
 43
0.0
 44
0.0
 45
0.0
 46
0.0
 47
0.0
 48
0.0
 49
0.0
140
0.0
141
0.0
142
1.0
143
1.0
 70
   688
 72
     0
 73
     0
 74
     5
  7

 75
    16
 76
     0
 77
     2
 78
   300
147
1.0
148
0.0
149
0.0
100
AcDbLayout
  1
Layout1
 70
     1
 71
     1
 10
0.0
 20
0.0
 11
12.0
 21
9.0
 12
0.0
 22
0.0
 32
0.0
 14
1.000000000000000E+20
 24
1.000000000000000E+20
 34
1.000000000000000E+20
 15
-1.000000000000000E+20
 25
-1.000000000000000E+20
 35
-1.000000000000000E+20
146
0.0
 13
0.0
 23
0.0
 33
0.0
 16
1.0
 26
0.0
 36
0.0
 17
0.0
 27
1.0
 37
0.0
 76
     0
330
1B
  0
LAYOUT
  5
26
102
{ACAD_REACTORS
330
1A
102
}
330
1A
100
AcDbPlotSettings
  1

  2
none_device
  4

  6

 40
0.0
 41
0.0
 42
0.0
 43
0.0
 44
0.0
 45
0.0
 46
0.0
 47
0.0
 48
0.0
 49
0.0
140
0.0
141
0.0
142
1.0
143
1.0
 70
   688
 72
     0
 73
     0
 74
     5
  7

 75
    16
 76
     0
 77
     2
 78
   300
147
1.0
148
0.0
149
0.0
100
AcDbLayout
  1
Layout2
 70
     1
 71
     2
 10
0.0
 20
0.0
 11
0.0
 21
0.0
 12
0.0
 22
0.0
 32
0.0
 14
0.0
 24
0.0
 34
0.0
 15
0.0
 25
0.0
 35
0.0
146
0.0
 13
0.0
 23
0.0
 33
0.0
 16
1.0
 26
0.0
 36
0.0
 17
0.0
 27
1.0
 37
0.0
 76
     0
330
23
  0
LAYOUT
  5
22
102
{ACAD_REACTORS
330
1A
102
}
330
1A
100
AcDbPlotSettings
  1

  2
none_device
  4

  6

 40
0.0
 41
0.0
 42
0.0
 43
0.0
 44
0.0
 45
0.0
 46
0.0
 47
0.0
 48
0.0
 49
0.0
140
0.0
141
0.0
142
1.0
143
1.0
 70
  1712
 72
     0
 73
     0
 74
     0
  7

 75
     0
 76
     0
 77
     2
 78
   300
147
1.0
148
0.0
149
0.0
100
AcDbLayout
  1
Model
 70
     1
 71
     0
 10
0.0
 20
0.0
 11
12.0
 21
9.0
 12
0.0
 22
0.0
 32
0.0
 14
-7.13347
 24
-1.88892
 34
0.0
 15
4.82015
 25
5.44691
 35
0.0
146
0.0
 13
0.0
 23
0.0
 33
0.0
 16
1.0
 26
0.0
 36
0.0
 17
0.0
 27
1.0
 37
0.0
 76
     0
330
1F
331
29
  0
MLINESTYLE
  5
18
102
{ACAD_REACTORS
330
17
102
}
330
17
100
AcDbMlineStyle
  2
Standard
 70
     0
  3

 62
   256
 51
90.0
 52
90.0
 71
     2
 49
0.5
 62
   256
  6
BYLAYER
 49
-0.5
 62
   256
  6
BYLAYER
  0
ACDBPLACEHOLDER
  5
F
102
{ACAD_REACTORS
330
E
102
}
330
E
  0
SCALE
  5
3C
102
{ACAD_REACTORS
330
3B
102
}
330
3B
100
AcDbScale
 70
     0
300
1:1
140
1.0
141
1.0
290
     1
  0
SCALE
  5
3D
102
{ACAD_REACTORS
330
3B
102
}
330
3B
100
AcDbScale
 70
     0
300
1:2
140
1.0
141
2.0
290
     0
  0
SCALE
  5
3E
102
{ACAD_REACTORS
330
3B
102
}
330
3B
100
AcDbScale
 70
     0
300
1:4
140
1.0
141
4.0
290
     0
  0
SCALE
  5
3F
102
{ACAD_REACTORS
330
3B
102
}
330
3B
100
AcDbScale
 70
     0
300
1:5
140
1.0
141
5.0
290
     0
  0
SCALE
  5
40
102
{ACAD_REACTORS
330
3B
102
}
330
3B
100
AcDbScale
 70
     0
300
1:8
140
1.0
141
8.0
290
     0
  0
SCALE
  5
41
102
{ACAD_REACTORS
330
3B
102
}
330
3B
100
AcDbScale
 70
     0
300
1:10
140
1.0
141
10.0
290
     0
  0
SCALE
  5
42
102
{ACAD_REACTORS
330
3B
102
}
330
3B
100
AcDbScale
 70
     0
300
1:16
140
1.0
141
16.0
290
     0
  0
SCALE
  5
43
102
{ACAD_REACTORS
330
3B
102
}
330
3B
100
AcDbScale
 70
     0
300
1:20
140
1.0
141
20.0
290
     0
  0
SCALE
  5
44
102
{ACAD_REACTORS
330
3B
102
}
330
3B
100
AcDbScale
 70
     0
300
1:30
140
1.0
141
30.0
290
     0
  0
SCALE
  5
45
102
{ACAD_REACTORS
330
3B
102
}
330
3B
100
AcDbScale
 70
     0
300
1:40
140
1.0
141
40.0
290
     0
  0
SCALE
  5
46
102
{ACAD_REACTORS
330
3B
102
}
330
3B
100
AcDbScale
 70
     0
300
1:50
140
1.0
141
50.0
290
     0
  0
SCALE
  5
47
102
{ACAD_REACTORS
330
3B
102
}
330
3B
100
AcDbScale
 70
     0
300
1:100
140
1.0
141
100.0
290
     0
  0
SCALE
  5
48
102
{ACAD_REACTORS
330
3B
102
}
330
3B
100
AcDbScale
 70
     0
300
2:1
140
2.0
141
1.0
290
     0
  0
SCALE
  5
49
102
{ACAD_REACTORS
330
3B
102
}
330
3B
100
AcDbScale
 70
     0
300
4:1
140
4.0
141
1.0
290
     0
  0
SCALE
  5
4A
102
{ACAD_REACTORS
330
3B
102
}
330
3B
100
AcDbScale
 70
     0
300
8:1
140
8.0
141
1.0
290
     0
  0
SCALE
  5
4B
102
{ACAD_REACTORS
330
3B
102
}
330
3B
100
AcDbScale
 70
     0
300
10:1
140
10.0
141
1.0
290
     0
  0
SCALE
  5
4C
102
{ACAD_REACTORS
330
3B
102
}
330
3B
100
AcDbScale
 70
     0
300
100:1
140
100.0
141
1.0
290
     0
  0
SCALE
  5
4D
102
{ACAD_REACTORS
330
3B
102
}
330
3B
100
AcDbScale
 70
     0
300
1/128" = 1'-0"
140
0.0078125
141
12.0
290
     0
  0
SCALE
  5
4E
102
{ACAD_REACTORS
330
3B
102
}
330
3B
100
AcDbScale
 70
     0
300
1/64" = 1'-0"
140
0.015625
141
12.0
290
     0
  0
SCALE
  5
4F
102
{ACAD_REACTORS
330
3B
102
}
330
3B
100
AcDbScale
 70
     0
300
1/32" = 1'-0"
140
0.03125
141
12.0
290
     0
  0
SCALE
  5
50
102
{ACAD_REACTORS
330
3B
102
}
330
3B
100
AcDbScale
 70
     0
300
1/16" = 1'-0"
140
0.0625
141
12.0
290
     0
  0
SCALE
  5
51
102
{ACAD_REACTORS
330
3B
102
}
330
3B
100
AcDbScale
 70
     0
300
3/32" = 1'-0"
140
0.09375
141
12.0
290
     0
  0
SCALE
  5
52
102
{ACAD_REACTORS
330
3B
102
}
330
3B
100
AcDbScale
 70
     0
300
1/8" = 1'-0"
140
0.125
141
12.0
290
     0
  0
SCALE
  5
53
102
{ACAD_REACTORS
330
3B
102
}
330
3B
100
AcDbScale
 70
     0
300
3/16" = 1'-0"
140
0.1875
141
12.0
290
     0
  0
SCALE
  5
54
102
{ACAD_REACTORS
330
3B
102
}
330
3B
100
AcDbScale
 70
     0
300
1/4" = 1'-0"
140
0.25
141
12.0
290
     0
  0
SCALE
  5
55
102
{ACAD_REACTORS
330
3B
102
}
330
3B
100
AcDbScale
 70
     0
300
3/8" = 1'-0"
140
0.375
141
12.0
290
     0
  0
SCALE
  5
56
102
{ACAD_REACTORS
330
3B
102
}
330
3B
100
AcDbScale
 70
     0
300
1/2" = 1'-0"
140
0.5
141
12.0
290
     0
  0
SCALE
  5
57
102
{ACAD_REACTORS
330
3B
102
}
330
3B
100
AcDbScale
 70
     0
300
3/4" = 1'-0"
140
0.75
141
12.0
290
     0
  0
SCALE
  5
58
102
{ACAD_REACTORS
330
3B
102
}
330
3B
100
AcDbScale
 70
     0
300
1" = 1'-0"
140
1.0
141
12.0
290
     0
  0
SCALE
  5
59
102
{ACAD_REACTORS
330
3B
102
}
330
3B
100
AcDbScale
 70
     0
300
1-1/2" = 1'-0"
140
1.5
141
12.0
290
     0
  0
SCALE
  5
5A
102
{ACAD_REACTORS
330
3B
102
}
330
3B
100
AcDbScale
 70
     0
300
3" = 1'-0"
140
3.0
141
12.0
290
     0
  0
SCALE
  5
5B
102
{ACAD_REACTORS
330
3B
102
}
330
3B
100
AcDbScale
 70
     0
300
6" = 1'-0"
140
6.0
141
12.0
290
     0
  0
SCALE
  5
5C
102
{ACAD_REACTORS
330
3B
102
}
330
3B
100
AcDbScale
 70
     0
300
1'-0" = 1'-0"
140
12.0
141
12.0
290
     0
  0
VISUALSTYLE
  5
2F
102
{ACAD_REACTORS
330
2A
102
}
330
2A
100
AcDbVisualStyle
  2
2dWireframe
 70
     4
 71
     0
 72
     2
 73
     0
 90
        0
 40
-0.6
 41
-30.0
 62
     5
 63
     7
421
 16777215
 74
     1
 91
        4
 64
     7
 65
   257
 75
     1
175
     1
 42
1.0
 92
        0
 66
   257
 43
1.0
 76
     1
 77
     6
 78
     2
 67
     7
 79
     5
170
     0
171
     0
290
     0
174
     0
 93
        1
 44
0.0
173
     0
291
     0
 45
0.0
  0
VISUALSTYLE
  5
31
102
{ACAD_REACTORS
330
2A
102
}
330
2A
100
AcDbVisualStyle
  2
3D Hidden
 70
     6
 71
     1
 72
     2
 73
     2
 90
        0
 40
-0.6
 41
-30.0
 62
     5
 63
     7
421
 16777215
 74
     2
 91
        2
 64
     7
 65
   257
 75
     2
175
     1
 42
40.0
 92
        0
 66
   257
 43
1.0
 76
     1
 77
     6
 78
     2
 67
     7
 79
     3
170
     0
171
     0
290
     0
174
     0
 93
        1
 44
0.0
173
     0
291
     0
 45
0.0
  0
VISUALSTYLE
  5
30
102
{ACAD_REACTORS
330
2A
102
}
330
2A
100
AcDbVisualStyle
  2
3dWireframe
 70
     5
 71
     0
 72
     2
 73
     0
 90
        0
 40
-0.6
 41
-30.0
 62
     5
 63
     7
421
 16777215
 74
     1
 91
        4
 64
     7
 65
   257
 75
     1
175
     1
 42
1.0
 92
        0
 66
   257
 43
1.0
 76
     1
 77
     6
 78
     2
 67
     7
 79
     5
170
     0
171
     0
290
     0
174
     0
 93
        1
 44
0.0
173
     0
291
     0
 45
0.0
  0
VISUALSTYLE
  5
32
102
{ACAD_REACTORS
330
2A
102
}
330
2A
100
AcDbVisualStyle
  2
Basic
 70
     7
 71
     1
 72
     0
 73
     1
 90
        0
 40
-0.6
 41
-30.0
 62
     5
 63
     7
421
 16777215
 74
     0
 91
        4
 64
     7
 65
   257
 75
     1
175
     1
 42
1.0
 92
        8
 66
     7
 43
1.0
 76
     1
 77
     6
 78
     2
 67
     7
 79
     5
170
     0
171
     0
290
     0
174
     0
 93
        1
 44
0.0
173
     0
291
     1
 45
0.0
  0
VISUALSTYLE
  5
36
102
{ACAD_REACTORS
330
2A
102
}
330
2A
100
AcDbVisualStyle
  2
Brighten
 70
    12
 71
     2
 72
     2
 73
     0
 90
        0
 40
-0.6
 41
-30.0
 62
     5
 63
     7
421
 16777215
 74
     1
 91
        4
 64
     7
 65
   257
 75
     1
175
     1
 42
1.0
 92
        8
 66
     7
 43
1.0
 76
     1
 77
     6
 78
     2
 67
     7
 79
     5
170
     0
171
     0
290
     0
174
     0
 93
        1
 44
50.0
173
     0
291
     1
 45
0.0
  0
VISUALSTYLE
  5
3A
102
{ACAD_REACTORS
330
2A
102
}
330
2A
100
AcDbVisualStyle
  2
ColorChange
 70
    16
 71
     2
 72
     2
 73
     3
 90
        0
 40
-0.6
 41
-30.0
 62
     5
 63
     8
421
  8421504
 74
     1
 91
        4
 64
     7
 65
   257
 75
     1
175
     1
 42
1.0
 92
        8
 66
     8
424
  8421504
 43
1.0
 76
     1
 77
     6
 78
     2
 67
     7
 79
     5
170
     0
171
     0
290
     0
174
     0
 93
        1
 44
0.0
173
     0
291
     1
 45
0.0
  0
VISUALSTYLE
  5
34
102
{ACAD_REACTORS
330
2A
102
}
330
2A
100
AcDbVisualStyle
  2
Conceptual
 70
     9
 71
     3
 72
     2
 73
     0
 90
        0
 40
-0.6
 41
-30.0
 62
     5
 63
     7
421
 16777215
 74
     2
 91
        2
 64
     7
 65
   257
 75
     1
175
     1
 42
40.0
 92
        8
 66
     7
 43
1.0
 76
     1
 77
     6
 78
     2
 67
     7
 79
     3
170
     0
171
     0
290
     0
174
     0
 93
        1
 44
0.0
173
     0
291
     0
 45
0.0
  0
VISUALSTYLE
  5
35
102
{ACAD_REACTORS
330
2A
102
}
330
2A
100
AcDbVisualStyle
  2
Dim
 70
    11
 71
     2
 72
     2
 73
     0
 90
        0
 40
-0.6
 41
-30.0
 62
     5
 63
     7
421
 16777215
 74
     1
 91
        4
 64
     7
 65
   257
 75
     1
175
     1
 42
1.0
 92
        8
 66
     7
 43
1.0
 76
     1
 77
     6
 78
     2
 67
     7
 79
     5
170
     0
171
     0
290
     0
174
     0
 93
        1
 44
-50.0
173
     0
291
     1
 45
0.0
  0
VISUALSTYLE
  5
39
102
{ACAD_REACTORS
330
2A
102
}
330
2A
100
AcDbVisualStyle
  2
Facepattern
 70
    15
 71
     2
 72
     2
 73
     0
 90
        0
 40
-0.6
 41
-30.0
 62
     5
 63
     7
421
 16777215
 74
     1
 91
        4
 64
     7
 65
   257
 75
     1
175
     1
 42
1.0
 92
        8
 66
     7
 43
1.0
 76
     1
 77
     6
 78
     2
 67
     7
 79
     5
170
     0
171
     0
290
     0
174
     0
 93
        1
 44
0.0
173
     0
291
     1
 45
0.0
  0
VISUALSTYLE
  5
2B
102
{ACAD_REACTORS
330
2A
102
}
330
2A
100
AcDbVisualStyle
  2
Flat
 70
     0
 71
     2
 72
     1
 73
     1
 90
        2
 40
-0.6
 41
30.0
 62
     5
 63
     7
421
 16777215
 74
     0
 91
        4
 64
     7
 65
   257
 75
     1
175
     1
 42
1.0
 92
        8
 66
     7
 43
1.0
 76
     1
 77
     6
 78
     2
 67
     7
 79
     5
170
     0
171
     0
290
     0
174
     0
 93
       13
 44
0.0
173
     0
291
     1
 45
0.0
  0
VISUALSTYLE
  5
2C
102
{ACAD_REACTORS
330
2A
102
}
330
2A
100
AcDbVisualStyle
  2
FlatWithEdges
 70
     1
 71
     2
 72
     1
 73
     1
 90
        2
 40
-0.6
 41
30.0
 62
     5
 63
     7
421
 16777215
 74
     1
 91
        4
 64
     7
 65
   257
 75
     1
175
     1
 42
1.0
 92
        0
 66
   257
 43
1.0
 76
     1
 77
     6
 78
     2
 67
     7
 79
     5
170
     0
171
     0
290
     0
174
     0
 93
       13
 44
0.0
173
     0
291
     1
 45
0.0
  0
VISUALSTYLE
  5
2D
102
{ACAD_REACTORS
330
2A
102
}
330
2A
100
AcDbVisualStyle
  2
Gouraud
 70
     2
 71
     2
 72
     2
 73
     1
 90
        2
 40
-0.6
 41
30.0
 62
     5
 63
     7
421
 16777215
 74
     0
 91
        4
 64
     7
 65
   257
 75
     1
175
     1
 42
1.0
 92
        0
 66
     7
 43
1.0
 76
     1
 77
     6
 78
     2
 67
     7
 79
     5
170
     0
171
     0
290
     0
174
     0
 93
       13
 44
0.0
173
     0
291
     1
 45
0.0
  0
VISUALSTYLE
  5
2E
102
{ACAD_REACTORS
330
2A
102
}
330
2A
100
AcDbVisualStyle
  2
GouraudWithEdges
 70
     3
 71
     2
 72
     2
 73
     1
 90
        2
 40
-0.6
 41
30.0
 62
     5
 63
     7
421
 16777215
 74
     1
 91
        4
 64
     7
 65
   257
 75
     1
175
     1
 42
1.0
 92
        0
 66
   257
 43
1.0
 76
     1
 77
     6
 78
     2
 67
     7
 79
     5
170
     0
171
     0
290
     0
174
     0
 93
       13
 44
0.0
173
     0
291
     1
 45
0.0
  0
VISUALSTYLE
  5
38
102
{ACAD_REACTORS
330
2A
102
}
330
2A
100
AcDbVisualStyle
  2
Linepattern
 70
    14
 71
     2
 72
     2
 73
     0
 90
        0
 40
-0.6
 41
-30.0
 62
     5
 63
     7
421
 16777215
 74
     1
 91
        4
 64
     7
 65
   257
 75
     7
175
     7
 42
1.0
 92
        8
 66
     7
 43
1.0
 76
     1
 77
     6
 78
     2
 67
     7
 79
     5
170
     0
171
     0
290
     0
174
     0
 93
        1
 44
0.0
173
     0
291
     1
 45
0.0
  0
VISUALSTYLE
  5
33
102
{ACAD_REACTORS
330
2A
102
}
330
2A
100
AcDbVisualStyle
  2
Realistic
 70
     8
 71
     2
 72
     2
 73
     0
 90
        0
 40
-0.6
 41
-30.0
 62
     5
 63
     7
421
 16777215
 74
     1
 91
        0
 64
     7
 65
   257
 75
     1
175
     1
 42
1.0
 92
        8
 66
     8
424
  7895160
 43
1.0
 76
     1
 77
     6
 78
     2
 67
     7
 79
     5
170
     0
171
     0
290
     0
174
     0
 93
       13
 44
0.0
173
     0
291
     0
 45
0.0
  0
VISUALSTYLE
  5
37
102
{ACAD_REACTORS
330
2A
102
}
330
2A
100
AcDbVisualStyle
  2
Thicken
 70
    13
 71
     2
 72
     2
 73
     0
 90
        0
 40
-0.6
 41
-30.0
 62
     5
 63
     7
421
 16777215
 74
     1
 91
        4
 64
     7
 65
   257
 75
     1
175
     1
 42
1.0
 92
       12
 66
     7
 43
1.0
 76
     1
 77
     6
 78
     2
 67
     7
 79
     5
170
     0
171
     0
290
     0
174
     0
 93
        1
 44
0.0
173
     0
291
     1
 45
0.0
  0
ENDSEC
  0
EOF
